Guitaretab - guitar tabs
Song name
# A B C D E F G H I J K L M N O P Q R S T U V W X Y Z

Creed - One Last Breath tab

---------------------------------------------------------------------------
			     ONE LAST BREATH - Creed
----------------------------------------------------------------------------

Tabbed by:DJ_Inferno2000
Email:DJ_Inferno2000@hotmail.com

Tuning: e B G D A E

Intro/Verse:

e|-2----5----0h2-----------------------------------------------3---|
B|----------------3---2-3-3h5-5p3p2h3p2-----3-2h3----------3-------|
G|------------------------------------------------4------0---------|
D|-0--0----0----------------------------------------4--------0---0-|
A|------------------0---------------------2--0---------------------|
E|-----------------------------------------------------3-----------|

e|-2---3--2p0--------------------------------2------------------3--------|
B|------------3-2----------2h3p2p0h2-------2---2--------------3--3-------|
G|-----------------------2----------------4------4----------0------0-----|
D|-0-0---0-------------2----------------4----------4------0----------0---|
A|-----------------4-0----------------2-----------------2----------------|
E|----------------------------------------------------3------------------|

Clean Chorus:
[ Tab from: http://www.guitaretab.com/c/creed/22523.html ]
e|--2--2-2-2-----2--2-2-2----2--2-2-2---3--3-3-3------|
B|--3--3-3-3-----2--2-2-2----3--3-3-3---3--3-3-3------|
G|--2--2-2-2-----3--3-3-3----4--4-4-4---4--4-4-4------| x 2
D|--0--0-0-0-----4--4-4-4----4--4-4-4---5--5-5-5------|
A|---------------4--4-4-4----2--2-2-2---5--5-5-5------|
E|---------------2--2-2-2---------------3--3-3-3------|

Distorted Chorus:

e|-----------------------------------------------------------------|
B|-----------------------------------------------------------------|
G|-7-7-7-7-------4-4-4-4-4------7-7-7-7----------4-4-4-4-----------|
D|-7-7-7-7-4-4-4-4-4-4-4-4-5-5--7-7-7-7-4-4-4-4--4-4-4-4-5-5-5-5---|
A|-5-5-5-5-4-4-4-4-2-2-2-2-5-5--5-5-5-5-4-4-4-4--2-2-2-2-5-5-5-5---|
E|---------2-2-2-2---------3-3----------2-2-2-2----------3-3-3-3---|

Distorted Pre-Bridge:

e|--------------------------------------|
B|--------------------------------------|
G|-4--4-4-4----------4--4-4-4-----------|
D|-4--4-4-4-5--5-5-5-4--4-4-4-5--5-5-5--|
A|-2--2-2-2-5--5-5-5-2--2-2-2-5--5-5-5--|
E|----------3--3-3-3----------3--3-3-3--|


Distorted Bridge:


e|-----------------------------------------------------------|
B|-----------------------------------------------------------|
G|-------------------7-7-7-7---------------------------------|
D|-2-2-2-2-2-5-5-5-5-7-7-7-7-7-7-7-7--9-9-9-9----------------|
A|-2-2-2-2-2-5-5-5-5-5-5-5-5-7-7-7-7--9-9-9-9-5-5-5-5--------|
E|-0-0-0-0-0-3-3-3-3---------5-5-5-5--7-7-7-7-3-3-3-3--------|

Structure:

Verse x 3
Clean Chorus x 2
Verse x 3
Distorted Chorus x 2
Pre-Bridge x1
Bridge x 2
Clean Chorus x 2
Distorted Chorus x 4
Verse ( 1st Part) x 1
****************************************************************************
Related for One Last Breath tab
×
Best way to learn
"One Last Breath"