Song name
# A B C D E F G H I J K L M N O P Q R S T U V W X Y Z

Creed - My Sacrifce tab

D5 Tuning (low to high) DADADD

Guitar Notation
/= slide up
H= hammer on
P= pull off
P.M.= Palm Mute
B=bend
*=harmonics
Figure 1

D---------------0-----------------------------0--------------
D-----------------0------------------------------------------
A--------4-----------4--------------------12-----12----------
D----------4------------4--------------12-----------12-------
A-----2------2-------------2----0---10------------------10---
D------------------------------------------------------------

Figure 2

D-----------------------------------------------------------
D-----------------------------------------------------------
A------------5--5--4--4-4/5----5--5--4--4-4/9---9/10--------
D------------x--x--x--x-x-x----x--x--x--x-x-x---x--x--------
A------------5--5--4--4-4/5----5--5--4--4-4/9---9/10--------
D------0--0--0--0--0--0-0-0----0--0--0--0-0-0---0--0--------

Figure 3

D-------------------------------------------------------------
D-------------------------------------------------------------
A-----5--5/4--4-4--5-5--4--5-5--5--5--5/4--4-4--5-5--4--5-5--5
D-----x--x-x--x-x--x-x--x--x-x--x--x--x-x--x-x--x-x--x--x-x--x
A-----5--5/4--4-4--5-5--4--5-5--5--5--5/4--4-4--5-5--4--5-5--5
D-----0--0-0--0-0--0-0--0--0-0--0--0--0-0--0-0--0-0--0--0-0--0

D---------0--0-0--0------------------------------
D---------0--0-0--0------------------------------
A-----4---2--2-2--2---/10--10-10-10--10--10-10-10
D-----x---x--x-x--x---/12--12-12-12--12--12-12-12
A-----4---2--2-2--2---/10--10-10-10--10--10-10-10
D-----0---0--0-0--0------------------------------

Figure 4

D----0--0-5H7-5-4-0-0--0--0-0-0--0--0-0------------------------------
D----0--0-0-0-0-0-0-0--0--0-0-0--0--0-0------------------------------
A----0--0-0-0-0-0-0-0--0--0-0-0--0--0-0------------------------------
D----0--0-0-0-0-0-0-0--7--7-7-7--7--7-7--11-11-11H12-12-11H12-12-11-9
A----0--0-0-0-0-0-0-0--4--4-4-4--4--4-4---9--9--9--9--9--9--9--9--9-9
D----0--0-0-0-0-0-0-0--0--0-0-0--0--0-0---9--9--9--9--9--9--9--9--9-9

D----------------------------------------
D----------------------------------------
A----------------------------------------
D--5--5-5-5--5-5----5-3--x--5-3-0-3B--5-3
A--5--5-5-5--5-5----5-3--X--5-3-0-3B--5-3
D--5--5-5-5--5-5----5-3--X--5-3-0-3B--5-3
P.M.         ---

Figure 5

D---------------------------------------------------------------------
D---------------------------------------------------------------------
A-----9/7--7-7----7/5--5-5----5/4--4-4----2-2/4-4---5/4-4/7-7/5--5-5--
D-----x-x--x-x----x-x--x-x----x-x--x-x----x-x-x-x---x-x-x-x-x-x--x-x--
A-----9/7--7-7----7/5--5-5----5/4--4-4----2-2/4-4---5/4-4/7-7/5--5-5--
D---0----------0------------0----------0----------0------------------0
PM --          -            -          -          -                  -

Figure 6

D-----8-8-8------8-8-8--------8-8-8-------------0
D-----8-8-8------8-8-8--------8-8-8-------------0
A-----8-8-8------8-8-8--------8-8-8-------------0
D----------------------------------------0-0-0--0
A----------------------------------------0-0-0--0
D-------------0-----------0----------0---0-0-0--0
P.M.          -           -          ---------

Figure 7

D-------0--0-0-5H7-5-4--0-0--0--0-0-0--0-0-0-------0--------------------0
D-------0--0-0-0-0-0-0--0-0--0--0-0-0--0-0-0-----0---0----------0-------0
A-------0--0-0-0-0-0-0--0-0--0--0-0-0--0-0-0---0-------0----------0-------
D-------0--0-0-0-0-0-0--0-0--7--7-7-7--7-7-7-11----------11-11------11----
A-------0--0-0-0-0-0-0--0-0--4--4-4-4--4-4-4--9--------------9------------
D-------0--0-0-0-0-0-0--0-0--0--0-0-0--0-0-0--9--------------9------------

D----------------------------0--0-0-5H7-0-0--0-0--0--0-0-0--0-0-0
D----------------------------0--0-0-0-0-0-0--0-0--0--0-0-0--0-0-0
A----------------------------0--0-0-0-0-0-0--0-0--0--0-0-0--0-0-0
D-------7--7--7H9--9--9P7----0--0-0-0-0-0-0--0-0--7--7-7-7--7-7-7
A-------5--5--5----5--5------0--0-0-0-0-0-0--0-0--4--4-4-4--4-4-4
D-------5--5--5----5--5------0--0-0-0-0-0-0--0-0--0--0-0-0--0-0-0

D----------------0--------------------0-------------------------
D--------------0---0----------0-------0-------------------------
A------------0-------0----------0-------------------------------
D----------11----------11-11------11-----------7--7--7H9--9--9P7
A-----------9--------------9-------------------5--5--5----5--5--
D-----------9--------------9-------------------5--5--5----5--5--

Figure 8
D------------------
D------------------
A------------------
D------------------
A------------------
D----2.3*-2.3*--2.3*

Figure 9

D---0--0-5H7-0-0--0-0-0--0--0-0-0-0---------------------------------------------
D---0--0-0---0-0--0-0-0--0--0-0-0-0---------------------------------------------
A---0--0-0---0-0--0-0-0--0--0-0-0-0---------------------------------------------
D---0--0-0---0-0--4-4-4--4--4-4-4-4--11-11-11H12-12-11H12-12-11-9--7-7H9-7-7P5-0
A---0--0-0---0-0--7-7-7--7--7-7-7-7---9--9--9-----9--9-----9--9-9--5-5---5-5---0
D---0--0-0---0-0--0-0-0--0--0-0-0-0---9--9--9-----9--9-----9--9-9--5-5---5-5---0

Figure 1 x1 (clean)
Figure 2 x1 (clean)
Figure 3 x3 (distortion)
Figure 4 x2 (distortion)
Figure 3 x3 (distortion)
Figure 4 x2 (distortion)
Figure 5 x4 (distortion)
Figure 6 x1 (distortion)
Figure 7 x1 (clean)
Figure 8 x1 (distortion)
Figure 4 x2 (distortion)
Figure 5 x4 (distortion
Figure 6 x1 (distortion)
figure 9 x2 (slightly disorted)
Tap to rate this tab
# A B C D E F G H I J K L M N O P Q R S T U V W X Y Z