Song name
# A B C D E F G H I J K L M N O P Q R S T U V W X Y Z

Creed - Bullets tab

Artist- Creed
Song - Bullets
Album - Weathered
Tuning - Drop D (DADGBE)
Tabbed by Justin Macdonald
E-mail - tigergaze@hotmail.com



Intro/verse, Play fast
E -----------------------------------------------------
B -----------------------------------------------------
G -----------------------------------------------------
D -----------------------------------------------------
A -----------------------------------------------------
D 0-0-0-0-0-0-0-0-0-0-0-0-0-0-0-0-0-0-0-0-0-0-0-0-0-0-0

Guitar 2 
E -----------------------------------------------------
B -----------------------------------------------------
G -----------------------------------------------------
D 7-7-7-7-7-7-7-7-7-7-7-7-7-7-7h8-7---7---7---7--------
A ----------------------------------------------------- 
D -----------------------------------------------------

Chorus 
E -----------------------------------------------------
B -----------------------------------------------------
G -----------------------------------------------------
D -0-0-0-0-0-0-12------0-0-0-0---0-0-0-----------------
A -0-0-0-0-0-0-12------0-0-0-0---0-0-0-----------------
D -0-0-0-0-0-0-12------0-0-0-0---0-0-0-----------------
   * * * * * *         * * * *   * * *

E -----------------------------------------------------
B -----------------------------------------------------
G -----------------------------------------------------
D -0-0-0-0-0-0-12------0-0-0-0-0-0-12-13-10------------
A -0-0-0-0-0-0-12------0-0-0-0-0-0-12-13-10------------
D -0-0-0-0-0-0-12------0-0-0-0-0-0-12-13-10------------ 
   * * * * * *         * * * * * *  

Play the verse AT 1:34
Then play the chorus AT 1:58

Post Chorus AT 2:09
E --------------------------------------------------------------------
B --------------------------------------------------------------------
G --------------------------------------------------------------------
D -13-12-10-12-10-10---13-12-10-12-10-10---13-13-10-12-10-10---0-0-0--
A -13-12-10-12-10-10---13-12-10-12-10-10---13-13-10-12-10-10---0-0-0--   
D -13-12-10-12-10-10---13-12-10-12-10-10---13-13-10-12-10-10---0-0-0--    

 
E --------------------------------------------------------------------
B --------------------------------------------------------------------
G --------------------------------------------------------------------
D -13-12-10-12-10-10---13-12-10-12-10-10---13-13-10-12-10-10---0------
A -13-12-10-12-10-10---13-12-10-12-10-10---13-13-10-12-10-10---0------  
D -13-12-10-12-10-10---13-12-10-12-10-10---13-13-10-12-10-10---0------


E --------------------------------------------------------------------
B --------------------------------------------------------------------
G --------------------------------------------------------------------
D -13-12-10-12-10-10---13-12-10-12-10-10---13-13-10-12-10-10---0-0-0--
A -13-12-10-12-10-10---13-12-10-12-10-10---13-13-10-12-10-10---0-0-0--   
D -13-12-10-12-10-10---13-12-10-12-10-10---13-13-10-12-10-10---0-0-0-

Bridge 2:34 'Hey . . . all I want is what's real' play 2 times
E --------------------------------------------------------------------
B --------------------------------------------------------------------
G --------------------------------------------------------------------
D --------------------------------------------------------------------
A --------------------------------------------------------------------
D 0-0-0-0-0-0-0-0-0-0-0-0-0-0-0-0-0-0-0-0-0-0-0-0-0-0-0-0-0-0-0-0-0-0-

Guitar 2 plays this:                                                                              
E --------------------------------------------------------------------------|
B --------------------------------------------------------------------------|
G --------------------------------------------------------------------------|
D ---7--7--7--7--7--7--7---7---7-8--8--8--8--8---8/5---5---5--5--5--5---5---|
A ---0--0--0--0--0--0--0---0---0-0--0--0--0--0---0-----0---0--0--0--0---0---|
D -0-0--0--0--0--0--0--0---0---0-0--0--0--0--0---0-----0---0--0--0--0---0---|

Then this AT 2:57
"Please, help me find a place . . ." 
E -----------------------------------------------------------------------
B -----------------------------------------------------------------------
G -14--14-14-14--14-14-14--14-14--15--15-15-15-15-15-15-15-15-15-15--12--
D -----------------------------------------------------------------------
A -12--12-12-12--12-12-12--12-12--13--13-13-13-13-13-13-13-13-13-13--10--
D -----------------------------------------------------------------------
                                                                              
E -------------------------------------------------------------------------
B -------------------------------------------------------------------------
G -12-12-12--12-12-12-12-12-12-12--15--14-14-14-14-14-14--15-15--17-17-17--
D -------------------------------------------------------------------------
A -10-10-10--10-10-10-10-10-10-10--13--12-12-12-12-12-12--13-13--15-15-15--
D -------------------------------------------------------------------------


Chorus AT 3:08
E -----------------------------------------------------
B -----------------------------------------------------
G -----------------------------------------------------
D -0-0-0-0-0-0-12------0-0-0-0---0-0-0-----------------
A -0-0-0-0-0-0-12------0-0-0-0---0-0-0-----------------
D -0-0-0-0-0-0-12------0-0-0-0---0-0-0-----------------
   * * * * * *         * * * *   * * *

E -----------------------------------------------------
B -----------------------------------------------------
G -----------------------------------------------------
D -0-0-0-0-0-0-12------0-0-0-0-0-0-12-13-10------------
A -0-0-0-0-0-0-12------0-0-0-0-0-0-12-13-10------------
D -0-0-0-0-0-0-12------0-0-0-0-0-0-12-13-10------------ 
   * * * * * *         * * * * * *  




Post chorus AT 3:33

E --------------------------------------------------------------------
B --------------------------------------------------------------------
G --------------------------------------------------------------------
D -13-12-10-12-10-10---13-12-10-12-10-10---13-13-10-12-10-10---0-0-0--
A -13-12-10-12-10-10---13-12-10-12-10-10---13-13-10-12-10-10---0-0-0--   
D -13-12-10-12-10-10---13-12-10-12-10-10---13-13-10-12-10-10---0-0-0--    

 
E --------------------------------------------------------------------
B --------------------------------------------------------------------
G --------------------------------------------------------------------
D -13-12-10-12-10-10---13-12-10-12-10-10---13-13-10-12-10-10---0------
A -13-12-10-12-10-10---13-12-10-12-10-10---13-13-10-12-10-10---0------  
D -13-12-10-12-10-10---13-12-10-12-10-10---13-13-10-12-10-10---0------


E --------------------------------------------------------------------
B --------------------------------------------------------------------
G --------------------------------------------------------------------
D -13-12-10-12-10-10---13-12-10-12-10-10---13-13-10-12-10-10---0-0-0--
A -13-12-10-12-10-10---13-12-10-12-10-10---13-13-10-12-10-10---0-0-0--   
D -13-12-10-12-10-10---13-12-10-12-10-10---13-13-10-12-10-10---0-0-0--


Finish on this- 
E ---------------
B ---------------
G ---------------
D -0-------------
A -0-------------
D -0-------------


* palm mute
/ slide up
Tap to rate this tab
# A B C D E F G H I J K L M N O P Q R S T U V W X Y Z