Song name
# A B C D E F G H I J K L M N O P Q R S T U V W X Y Z

Creed - One Last Breath tab

This song has two different tunings in it. The intro, verse and the first chorus use standard tuning. The second chorus and the bridge use drop D (Dadgbe).Check out my website at www.geocities.com/baddabstabs/12 for creed tabs and more.


e--2----5----0h2---------------------------------------------------------------3-2---
b----------------3-----2--3-3h5-----5p3p23------------3-----2h3------------3---------
g------------------0----------------------------4---------------4-------0----2-------
d--0-0-----0------------------------------------------------------4----0--0----------
a--------------------0-----------0-----------0-----2-----2---------------------------
E---------------------------------------------------------------------3--------------


e--2----3---2-0h2p0-------------------------------2-----------3------------
b-------3-----------3---------2-2h3p2------------2--2----------3-----------
g----------------------------2--------2----0----4----4------0---0----------
d--0-0----0-----------------2------------4-----4------0----0-----0---------
a----------------------4-0--------------------2-----------2----------------
E--------------------------------------------------------3-----------------


e--2----2------2----------0---------0--2---2----2-------------------0--                  b--3----3------3----------0---------0--2---2----2----3--3--3----3---0--  
g--2----2------2---0--0---3---------0--4---4----4----0--0--0----0---0--
d--0----0------0---0--0---4------------4---4----4----0--0--0----0---0--
a-------------------------4------------2---2----2----x--x--x----x------
E-------------------------2-------2------------------3--3--3----3------


e--3-----2h3---2------------0--------0--------0-----0----------------
b--3-----3-----3---0--0-----0--------0----0---0-----0----3--3--3-----
g--2-----2-----2---0--0-----3--------3----0---4-----4----0--0--0-----
d--0-----0-----0---0--0-----4--------4----0---4-----4----0--0--0-----
a---------------------------4--------4--------2-----2----x--x--x-----
E---------------------------2--------2-------------------3--3--3-----

This is the second chorus in drop d.
e------------------------------------------------------------------
b-3----3----3-3----------------------------------------------------
g-2----2----2-2-----------------4-----4-----4-4--------------------
d-0----0----0-0--4-4---4-4-4-4--4-----4-----4-4---5-5---5-5-5-5----   X2
a-0----0----0-0--4-4---4-4-4-4--2-----2-----2-2---5-5---5-5-5-5----
D-0----0----0-0--4-4---4-4-4-4--------------------5-5---5-5-5-5----


This is the bridge also in drop D.
e-------------------------------------------------------------------
b----------------------------------3-3---3-3-3-3-3-3-3-3---3-3------
g----------------------------------2-2---2-2-2-2-2-2-2-2---2-2------
d--5------4-----9------7-----0-----0-0---0-0-0-0-0-0-0-0---0-0------
a--2------2-----5------5-----0-----0-0---0-0-0-0-0-0-0-0---0-0------
D--2------2-----5------5-----0-----0-0---0-0-0-0-0-0-0-0---0-0------


e-------------------------------------------------------------------
b--------------------------8----8-8---8---8-8---8-8---8-8-8-8-------
g--2-----2--2-2-4-----4-4--7----7-7---7---7-7---7-7---7-7-7-7-------
d--2-----2--2-2-4-----4-4--5----5-5---5---5-5---5-5---5-5-5-5-------
a--0-----0--0-0-2-----2-2--5----5-5---5---5-5---5-5---5-5-5-5-------
D--------------------------5----5-5---5---5-5---5-5---5-5-5-5-------
Tap to rate this tab
# A B C D E F G H I J K L M N O P Q R S T U V W X Y Z