Song name
# A B C D E F G H I J K L M N O P Q R S T U V W X Y Z

Creed - Wash Away Those Years tab

This part if you listen to the song is played pretty much through the whole song. 
if you here a change it's pretty easy to improvise.

E---------------------------------------------------------------------------
B---------------------------------------------------------------------------
G----10---10---9---9h10---9h10---9h10p9-7---7h9---7h9---7h9p7-7---6-6h7---7/
D--0----0----0---0------0------0----------0-----0-----0---------0-------0---
A---------------------------------------------------------------------------
D---------------------------------------------------------------------------

this part I believe is played the last time through on the top part of the song.

E-------------------------------------
B-------------------------------------
G----9---7h9---7h9---7h9-7---6h7---7--
D--0---0-----0-----0-------0-----0----
A-------------------------------------
D-------------------------------------

this is the chorus. (played in Clear the first time and then distortion the rest I believe)  Just listen to the song and you will know.

E---------------------------------------------------------------------------
B---------------------------------------------------------------------------
G--5--5--5-5-5-5-5-5--5-5-5-5--4-4-4--4/7-7-7-7-7-8--7/8\7------7/10\9------
D--3--3--3-3-3-3-3-3--2-2-2-2--2-2-2--2/5-5-5-5-5-6--5/6\5--0-0-0-----------
A--3--3--3-3-3-3-3-3--2-2-2-2--2-2-2--2/5-5-5-5-5-6--5/6\5--0-0-------------
D--3--3--3-3-3-3-3-3--2-2-2-2--2-2-2--2/5-5-5-5-5-6--5/6\5--0-0-------------

Second Part of the chorus.

E---------------------------------------------------------------------------
B---------------------------------------------------------------------------
G--5--5--5-5-5-5-5-5--5-5-5-5--4-4-4--4/7-7-7-7-7-8--7/8\7------------------
D--3--3--3-3-3-3-3-3--2-2-2-2--2-2-2--2/5-5-5-5-5-6--5/6\5--5-5--0-0--5---0-
A--3--3--3-3-3-3-3-3--2-2-2-2--2-2-2--2/5-5-5-5-5-6--5/6\5--5-5--0-0--5---0-
D--3--3--3-3-3-3-3-3--2-2-2-2--2-2-2--2/5-5-5-5-5-6--5/6\5--5-5--0-0--5---0-

back to beginning

E---------------------------------------------------------------------------
B---------------------------------------------------------------------------
G----10---10---9---9h10---9h10---9h10p9-7---7h9---7h9---7h9p7-7---6-6h7---7/
D--0----0----0---0------0------0----------0-----0-----0---------0-------0---
A---------------------------------------------------------------------------
D---------------------------------------------------------------------------

E-------------------------------------
B-------------------------------------
G----9---7h9---7h9---7h9-7---6h7---7--
D--0---0-----0-----0-------0-----0----
A-------------------------------------
D-------------------------------------

back to chorus.

E---------------------------------------------------------------------------
B---------------------------------------------------------------------------
G--5--5--5-5-5-5-5-5--5-5-5-5--4-4-4--4/7-7-7-7-7-8--7/8\7------7/10\9------
D--3--3--3-3-3-3-3-3--2-2-2-2--2-2-2--2/5-5-5-5-5-6--5/6\5--0-0-0-----------
A--3--3--3-3-3-3-3-3--2-2-2-2--2-2-2--2/5-5-5-5-5-6--5/6\5--0-0-------------
D--3--3--3-3-3-3-3-3--2-2-2-2--2-2-2--2/5-5-5-5-5-6--5/6\5--0-0-------------

E---------------------------------------------------------------------------
B---------------------------------------------------------------------------
G--5--5--5-5-5-5-5-5--5-5-5-5--4-4-4--4/7-7-7-7-7-8--7/8\7------------------
D--3--3--3-3-3-3-3-3--2-2-2-2--2-2-2--2/5-5-5-5-5-6--5/6\5--5-5--0-0--5---0-
A--3--3--3-3-3-3-3-3--2-2-2-2--2-2-2--2/5-5-5-5-5-6--5/6\5--5-5--0-0--5---0-
D--3--3--3-3-3-3-3-3--2-2-2-2--2-2-2--2/5-5-5-5-5-6--5/6\5--5-5--0-0--5---0-

Well that's about it.  I was to lazy to type out the solo but if you want it, email me and maybe I will post it up here.  It's a really cool song to learn to play.  alot easier then some of them. 
E-mail me at-vipernghtwolf85@hotmail.com
Tap to rate this tab
# A B C D E F G H I J K L M N O P Q R S T U V W X Y Z