Song name
# A B C D E F G H I J K L M N O P Q R S T U V W X Y Z

Creed - Stand Here With Me tab

Gtr I (D A D F# A D) - 'Guitar 1'
Gtr II (D A D F# A D) - 'Guitar 2'
Gtr III (D A D F# A D) - 'Guitar 3'
Gtr IV (D A D F# A D) - 'Guitar 4'


 Intro
  Moderately Slow Q=78
 4/4
  Gtr I
                                 ~~~
  E  S  S S  S  S S  S  S  S  S  E. S    E  E  S  E  S  S  S  S  S  +S   E S
|-------------------------------------|------------------------------------0--|
|-------------------------------------|------------------------------------0--|
|-------------------------------12--0-|----------12----12s13----13-(13)-12-0--|
|---11h12---11h12---12h14-11h12-------|----12-------------------12-(12)-12----|
|-0-------0-------0-------------------|-10----10----10-------10---------------|
|-------------------------------------|---------------------------------------|


                   ~~~~~~                         ~~~~~~~
  E. S S S S S S S E +S  E.   E. S S S S S S S S  S  +Q
|------------------------0--|----------------------------|
|------------------------0--|----------------------------|
|----------------7-8-(8)----|----------------7-8s10-(10)-|
|----------7-7s9------------|----------7-7s9-------------|
|----0-4h5------------------|-0--0-4h5-------------------|
|-0-------------------------|-0--------------------------|


  Gtrs II, III
                                 ~~~
  E  S  S S  S  S S  S  S  S  S  E. S
|-------------------------------------|
|-------------------------------------|
|-------------------------------12--0-|
|---11h12---11h12---12h14-11h12-------|
|-0-------0-------0-------------------|
|-------------------------------------|


   E  E  S  E S  a      +E.  +S   S  S  E
|-----------------------------------------|
|-----------------------------------------|
|----------12-0-13b15==(13)r(13)-13p12----|
|----12--------------------------------12-|
|-10----10--------------------------------|
|-----------------------------------------|


                            ~~~                        ~~~~~~~
  Q  S S S S S S S     +S  +E  E   E. S S S S S S S S  S  +E  S S
|------------------------------0-|----------------------------0-0-|
|------------------------------0-|----------------------------0-0-|
|--------------7-8b10==(8)r(8)---|----------------7-8s10-(10)-0-0-|
|--------7-7s9-------------------|----------7-7s9-----------------|
|-0--4h5-------------------------|-0--0-4h5-----------------------|
|-0------------------------------|-0------------------------------|


 Verse
                                 ~~~
  E  S  S S  S  S S  S  S  S  S  E. S    E  E  S  E  S  S  S  S  S  +S   E S
|-------------------------------------|------------------------------------0-|
|-------------------------------------|------------------------------------0-|
|-------------------------------12--0-|----------12----12s13----13-(13)-12-0-|
|---11h12---11h12---12h14-11h12-------|----12-------------------12-(12)-12---|
|-0-------0-------0-------------------|-10----10----10-------10--------------|
|-------------------------------------|--------------------------------------|


                   ~~~~~~                         ~~~~~~~
  E. S S S S S S S E +S  E.   E. S S S S S S S S  S  +Q
|------------------------0--|----------------------------|
|------------------------0--|----------------------------|
|----------------7-8-(8)----|----------------7-8s10-(10)-|
|----------7-7s9------------|----------7-7s9-------------|
|----0-4h5------------------|-0--0-4h5-------------------|
|-0-------------------------|-0--------------------------|


                                 ~~~
  E  S  S S  S  S S  S  S  S  S  E. S
|-------------------------------------|
|-------------------------------------|
|-------------------------------12--0-|
|---11h12---11h12---12h14-11h12-------|
|-0-------0-------0-------------------|
|-------------------------------------|


   E  E  S  E S  a      +E.  +S   S  S  E
|-----------------------------------------|
|-----------------------------------------|
|----------12-0-13b15==(13)r(13)-13p12----|
|----12--------------------------------12-|
|-10----10--------------------------------|
|-----------------------------------------|


                            ~~~                        ~~~~~~~
  Q  S S S S S S S     +S  +E  E   E. S S S S S S S S  S  +E  S S
|------------------------------0-|----------------------------0-0-|
|------------------------------0-|----------------------------0-0-|
|--------------7-8b10==(8)r(8)---|----------------7-8s10-(10)-0-0-|
|--------7-7s9-------------------|----------7-7s9-----------------|
|-0--4h5-------------------------|-0--0-4h5-----------------------|
|-0------------------------------|-0------------------------------|


                                 ~~~
  E  S  S S  S  S S  S  S  S  S  E. S    E  E  S  E  S  S  S  S  S  +S   E S
|-------------------------------------|------------------------------------0-|
|-------------------------------------|------------------------------------0-|
|-------------------------------12--0-|----------12----12s13----13-(13)-12-0-|
|---11h12---11h12---12h14-11h12-------|----12-------------------12-(12)-12---|
|-0-------0-------0-------------------|-10----10----10-------10--------------|
|-------------------------------------|--------------------------------------|


                   ~~~~~~                         ~~~~~~~
  E. S S S S S S S E +S  E.   E. S S S S S S S S  S  +Q
|------------------------0--|----------------------------|
|------------------------0--|----------------------------|
|----------------7-8-(8)----|----------------7-8s10-(10)-|
|----------7-7s9------------|----------7-7s9-------------|
|----0-4h5------------------|-0--0-4h5-------------------|
|-0-------------------------|-0--------------------------|


                                 ~~~
  E  S  S S  S  S S  S  S  S  S  E. S
|-------------------------------------|
|-------------------------------------|
|-------------------------------12--0-|
|---11h12---11h12---12h14-11h12-------|
|-0-------0-------0-------------------|
|-------------------------------------|


   E  E  S  E S  a      +E.  +S   S  S  E
|-----------------------------------------|
|-----------------------------------------|
|----------12-0-13b15==(13)r(13)-13p12----|
|----12--------------------------------12-|
|-10----10--------------------------------|
|-----------------------------------------|


                                                         D
                 ~~~~~~                               ~~~
  Q  S S S S S S E +S  E.   Q  S S S S S S S     +S  +E  S S
|----------------------0--|------------------------------0-0-|
|----------------------0--|------------------------------0-0-|
|--------------7-8-(8)----|--------------7-8b10==(8)r(8)-0-0-|
|--------7-7s9------------|--------7-7s9-----------------0-0-|
|-0--4h5------------------|-0--4h5-----------------------0-0-|
|-0-----------------------|-0----------------------------0-0-|


 Chorus
  D             C5              G/B  Bb5      F             G5
  E E Q  H      Q  E. S S S E S E.   E. S S S E +S  S S S S S S S
|-0-----------|--------------------|-------------------------------|
|-0-----------|--------------------|-------------------------------|
|-0-----------|-6--6--6-6-6-6---5--|-4--4-----3-(3)-3-3------------|
|-0-----------|-5--5--5-5-5-5---5--|-3--3-----3-(3)-3-3------------|
|-0-----------|-3--3--3-3-3-3---2--|-1--1-0-0-3-(3)-3-3-0-3s5-5-5--|
|-0-----------|---------------0----|------0-0-3-(3)-3-3-0-3s5-5-5--|


  D5          D5                  D5
                                  \2.5
  E S S S S S S +S  E S S S S S   E.   +S  Q  E. S  S   S   S  S
|-------------------------------|--------------------------------|
|-------------------------------|--------------------------------|
|-------------------------------|--------------------------------|
|-0-0-0-------0-(0)-0-0---------|-0----(0)-----------------------|
|-0-0-0-3h5---0-(0)-0-0-4h5-5-5-|-0----(0)-----------------------|
|-0-0-0-----0-0-(0)-0-0---------|-0----(0)-------x-<4>-<4>-<4>---|


  C5              G/B  Bb5      F             G5
  Q  E. S S S E S E.   E. S S S E +S  S S S S S S S
|--------------------|------------------------------|
|--------------------|------------------------------|
|-6--6--6-6-6-6---5--|-4--4-----3-(3)-3-3-----------|
|-5--5--5-5-5-5---5--|-3--3-----3-(3)-3-3-----------|
|-3--3--3-3-3-3---2--|-1--1-0-0-3-(3)-3-3-0-3s5-5-5-|
|---------------0----|------0-0-3-(3)-3-3-0-3s5-5-5-|


  D
  E S S S S S S +S  S S S S E +S
|-0-0-0--------------------------------|
|-0-0-0--------------------------------|
|-0-0-0--------------------------------|
|-0-0-0--------------------------------|
|-0-0-0-3h5-0-0-(0)-0-0-0---3-(3)b3.5--|
|-0-0-0-----0-0-(0)-0-0-0-5------------|


 Verse
                                 ~~~
  E  S  S S  S  S S  S  S  S  S  E. S
|-------------------------------------|
|-------------------------------------|
|-------------------------------12--0-|
|---11h12---11h12---12h14-11h12-------|
|-0-------0-------0-------------------|
|-------------------------------------|


   E  E  S  E S  a      +E.  +S   S  S  E
|-----------------------------------------|
|-----------------------------------------|
|----------12-0-13b15==(13)r(13)-13p12----|
|----12--------------------------------12-|
|-10----10--------------------------------|
|-----------------------------------------|


                            ~~~                             ~~~~
  Q  S S S S S S S     +S  +E  E   E S S S S S S S S S  S  +Q
|------------------------------0-|------------------------------|
|------------------------------0-|------------------------------|
|--------------7-8b10==(8)r(8)---|-0-0-0-----------7-8s10-(10)--|
|--------7-7s9-------------------|-0-0-0-----7-7s9--------------|
|-0--4h5-------------------------|-0-0-0-4h5--------------------|
|-0------------------------------|-0-0-0------------------------|


                                 ~~~
  E  S  S S  S  S S  S  S  S  S  E. S    E  E  S  E  S  S  S  S  S  +S   E S
|-------------------------------------|------------------------------------0-|
|-------------------------------------|------------------------------------0-|
|-------------------------------12--0-|----------12----12s13----13-(13)-12-0-|
|---11h12---11h12---12h14-11h12-------|----12-------------------12-(12)-12---|
|-0-------0-------0-------------------|-10----10----10-------10--------------|
|-------------------------------------|--------------------------------------|


                 ~~~~~~                               ~~~
  Q  S S S S S S E +S  E.   Q  S S S S S S S     +S  +E  S S
|----------------------0--|----------------------------------|
|----------------------0--|----------------------------------|
|--------------7-8-(8)-0--|-0------------7-8b10==(8)r(8)-0-0-|
|-0------7-7s9------------|-0------7-7s9-----------------0-0-|
|-0--4h5------------------|-0--4h5-----------------------0-0-|
|-0-----------------------|-0--------------------------------|


                                 ~~~
  E  S  S S  S  S S  S  S  S  S  E. S
|-------------------------------------|
|-------------------------------------|
|-------------------------------12--0-|
|---11h12---11h12---12h14-11h12-------|
|-0-------0-------0-------------------|
|-------------------------------------|


   E  E  S  E S  a      +E.  +S   S  S  E
|-----------------------------------------|
|-----------------------------------------|
|----------12-0-13b15==(13)r(13)-13p12----|
|----12--------------------------------12-|
|-10----10--------------------------------|
|-----------------------------------------|


                            ~~~                        ~~~~~~~
  Q  S S S S S S S     +S  +E  E   E. S S S S S S S S  S  +E  S S
|------------------------------0-|----------------------------0-0-|
|------------------------------0-|----------------------------0-0-|
|--------------7-8b10==(8)r(8)---|----------------7-8s10-(10)-0-0-|
|--------7-7s9-------------------|----------7-7s9-----------------|
|-0--4h5-------------------------|-0--0-4h5-----------------------|
|-0------------------------------|-0------------------------------|


                                 ~~~
  E  S  S S  S  S S  S  S  S  S  E. S    E  E  S  E  S  S  S  S  S  +S   E S
|-------------------------------------|------------------------------------0-|
|-------------------------------------|------------------------------------0-|
|-------------------------------12--0-|----------12----12s13----13-(13)-12-0-|
|---11h12---11h12---12h14-11h12-------|----12-------------------12-(12)-12---|
|-0-------0-------0-------------------|-10----10----10-------10--------------|
|-------------------------------------|--------------------------------------|


                                                         D
                 ~~~~~~                               ~~~
  Q  S S S S S S E +S  E.   Q  S S S S S S S     +S  +E  S S
|----------------------0--|------------------------------0-0-|
|----------------------0--|------------------------------0-0-|
|--------------7-8-(8)----|--------------7-8b10==(8)r(8)-0-0-|
|--------7-7s9------------|--------7-7s9-----------------0-0-|
|-0--4h5------------------|-0--4h5-----------------------0-0-|
|-0-----------------------|-0----------------------------0-0-|


 Chorus
  D        Asus4/D        C5              G/B  Bb5      F             G5
               \2.5
  E E Q  S E. +E.   +S    Q  E. S S S E S E.   E. S S S E +S  S S S S S S S
|-0---------------------|--------------------|-------------------------------|
|-0---------------------|--------------------|-------------------------------|
|-0---------------------|-6--6--6-6-6-6---5--|-4--4-----3-(3)-3-3------------|
|-0--------7--(7)---(7)-|-5--5--5-5-5-5---5--|-3--3-----3-(3)-3-3------------|
|-0--------5--(5)---(5)-|-3--3--3-3-3-3---2--|-1--1-0-0-3-(3)-3-3-0-3s5-5-5--|
|-0------x-0--(0)---(0)-|---------------0----|------0-0-3-(3)-3-3-0-3s5-5-5--|


  D5          D5
  Gtr III
  E S S S S S S +S  E S S S S S
|-------------------------------|
|-------------------------------|
|-------------------------------|
|-0-0-0-------0-(0)-0-0---------|
|-0-0-0-3h5---0-(0)-0-0-4h5-5-5-|
|-0-0-0-----0-0-(0)-0-0---------|
|
| Gtr II
| E S S S S S S +S  E S S S S S
|-------------------------------|
|-------------------------------|
|-------------------------------|
|-0-0-0-------0-(0)-0-0---------|
|-0-0-0-3h5---0-(0)-0-0-4h5-5-5-|
|-0-0-0-----0-0-(0)-0-0---------|


  D5                                   C#5
  E    E     E  S   S   S   S   S   S   S   S   S   S
|------------------------------------------------------|
|------------------------------------------------------|
|------------------------------------------------------|
|-0----------------------------------------------------|
|-0----------------------------------------------------|
|-0------------<4>-<4>-<4>-<4>-<4>-<4>-<4>-<4>-<4>-<4>-|
|
| \2.5
| E.     +S  Q          Q               Q
|------------------------------------------------------|
|------------------------------------------------------|
|------------------------------------------------------|
|-0------(0)-------------------------------------------|
|-0------(0)---------------------------11\-------------|
|-0------(0)---------------------------11\-------------|


  C5              G/B  Bb5      F             G5
  Gtrs II, III
  Q  E. S S S E S E.   E. S S S E +S  S S S S S S S
|--------------------|------------------------------|
|--------------------|------------------------------|
|-6--6--6-6-6-6---5--|-4--4-----3-(3)-3-3-----------|
|-5--5--5-5-5-5---5--|-3--3-----3-(3)-3-3-----------|
|-3--3--3-3-3-3---2--|-1--1-0-0-3-(3)-3-3-0-3s5-5-5-|
|---------------0----|------0-0-3-(3)-3-3-0-3s5-5-5-|


  D5          D5                  D   C5    A5      G5
  Gtr IV
  W                               H          Q        a     E.     S
|-------------------------------|------------------------------------|
|-------------------------------|--------------------------10--------|
|-------------------------------|---------------------9b10-(9)-----9-|
|-------------------------------|------------------------------------|
|-------------------------------|------------------------------------|
|-------------------------------|------------------------------------|
|
| Gtr III
|                                                           PM---|
| E S S S S S S +S  E S S S S S   E E  Q     E.     S       S  S S S
|-------------------------------|------------------------------------|
|-------------------------------|------------------------------------|
|-------------------------------|-0----------------------------------|
|-0-0-0-------0-(0)-0-0---------|-0----------------------------------|
|-0-0-0-3h5---0-(0)-0-0-4h5-5-5-|-0---10s====7s=====5--------------3-|
|-0-0-0-----0-0-(0)-0-0---------|-0---10s====7s=====5-------3--4-5---|
|
| Gtr II
|                                        \2
| E S S S S S S +S  E S S S S S   E E  E E  +E  +E          Q
|-------------------------------|------------------------------------|
|-------------------------------|------------------------------------|
|-------------------------------|------------------------------------|
|-0-0-0-------0-(0)-0-0---------|-0----------------------------------|
|-0-0-0-3h5---0-(0)-0-0-4h5-5-5-|-0------7--(7)-(7)------------------|
|-0-0-0-----0-0-(0)-0-0---------|-0------7--(7)-(7)------------------|


 Guitar Solo
        C5
  ~                   ~~~~~~~~~
  Q      S   S  S  S  E.  +S    Q
|-----------------------------------|
|-----------10-10-------------------|
|-8---------10-10h11----------------|
|--------------------12--(12)/------|
|--------0---------------------17\--|
|------------------------------17\--|
|
| Q      Q            Q         Q
|-----------------------------------|
|-----------------------------------|
|-----------------------------------|
|--------5--------------------------|
|--------3--------------------------|
|------------------------------17\--|
|
|    \1
| Q  a  +Q            Q         Q
|-----------------------------------|
|-----------------------------------|
|-----------------------------------|
|----5--(5)-------------------------|
|----3--(3)-------------------------|
|------------------------------17\--|


  Bb5                  F                 G5
                          PM---|   PM|   PM|
       |-3-|   |--3--|                       |--3--|
  S  S T T T S S S   S E  S  T T S T T S T T S S   S
|----------------------------------------------------|
|-5--7-5h7p5---5-------------------------------------|
|------------6---6---3-------------------------------|
|----------------------5--5--4-0-5-4-0-5-4-0-5-4---4-|
|----------------------------------------------------|
|----------------------------------------------------|
|
| E.         S S   S   E +S  S   S S   S S   S   S
|----------------------------------------------------|
|----------------------------------------------------|
|----------------------3-(3)-3---3-------------------|
|-3----------3---------3-(3)-3---3-------------------|
|-1----------1-0---0---3-(3)-3---3-0---3s5---5---5---|
|--------------0---0---3-(3)-3---3-0---3s5---5---5---|
|
| Q.                   E +Q.                 E
|----------------------------------------------------|
|----------------------------------------------------|
|----------------------------------------------------|
|----------------------------------------------------|
|----------------------3-(3)-----------------5-------|
|-0--------------------3-(3)-----------------5-------|


  D5                  D5
  Gtr IV
  Q      a     +Q        +E     a        +E     +E.      +S
|-------16b18-(16)------(16)---17b18.5==(17)---(17)r====(17)-|
|------------------------------------------------------------|
|------------------------------------------------------------|
|------------------------------------------------------------|
|------------------------------------------------------------|
|-0----------------------------------------------------------|
|
| Gtrs II, III
| E S S         S S S S  +S  E               S   S  S S   S
|------------------------------------------------------------|
|------------------------------------------------------------|
|------------------------------------------------------------|
|-0-0-0---------------0--(0)-0---------------0---------------|
|-0-0-0---------3h5---0--(0)-0---------------0---4h=5-5---5--|
|-0-0-0-------------0-0--(0)-0---------------0---------------|


  C5                                           G/B
   ~~
   Q   S   S  S  S  S  a     +E.    a      +S   +E.
|-16--15--------------------------------------------|
|---------17-19----17-------------------------------|
|---------------18----18b20-(18)---18b20==(18)r(18)-|
|---------------------------------------------------|
|---------------------------------------------------|
|---------------------------------------------------|
|
|  Q   E.        S  S         S  E          S    E.
|---------------------------------------------------|
|---------------------------------------------------|
|---------------------------------------------------|
|--5---5---------5--5---------5--5---------------5--|
|--3---3---------3--3---------3--3---------------2--|
|-------------------------------------------0-------|


  Bb5               F                  G5
                           ~~~     PM
        |--3--|
  S  S  S S   S S S  S  S  E.      S S  S S  S
|----------------------------------------------|
|-7--8-10p8p==7-8------------------------------|
|-----------------8-10-----8---------8-11-8----|
|----------------------10---------10--------10-|
|----------------------------------------------|
|----------------------------------------------|
|
| E.        S   S S  E    +S  S S  S S  S S  S
|----------------------------------------------|
|----------------------------------------------|
|--------------------3----(3)-3-3--------------|
|-3---------3--------3----(3)-3-3--------------|
|-1---------1---0-0--3----(3)-3-3--0-3s=5-5--5-|
|---------------0-0--3----(3)-3-3--0-3s=5-5--5-|


  D5            D5
  ~~
  E. +S    E. S +Q   +S   S  S  S
|------------------------16-14-16-|
|---------------------------------|
|-8--(8)/-------------------------|
|---------------------------------|
|---------------------------------|
|---------15\-0-(0)--(0)----------|
|
| Q        Q     H
|---------------------------------|
|---------------------------------|
|---------------------------------|
|---------------------------------|
|-0--------------0----------------|
|-0-------19\----0----------------|


  A5
   ~~~
   E.  S  S  S  E  +S   S  S  S  S  S  S  S
|-----16-14-16-17-(17)-16-14-16-17-16-14-16-|
|-17----------------------------------------|
|-------------------------------------------|
|-------------------------------------------|
|-------------------------------------------|
|-------------------------------------------|
|
|               ~~~~~~~
|  Q.           E  +E      E     E     E
|-------------------------------------------|
|-------------------------------------------|
|---------------8--(8)----------------------|
|--7-----------------------x-----x-----x----|
|--7-----------------------x-----x-----x----|
|--7-----------------------x-----x-----x----|


  D/G
   ~~~
   E.  S  S  S  E  +S   S  S  S  S  S  S  S
|-----16-14-16-17-(17)-16-14-16-17-16-14-16-|
|-17----------------------------------------|
|-------------------------------------------|
|-------------------------------------------|
|-------------------------------------------|
|-------------------------------------------|
|
|               ~~~~~~~
|  Q.           E  +E      E     E     E
|-------------------------------------------|
|-------------------------------------------|
|---------------8--(8)----------------------|
|--4-----------------------x-----x-----x----|
|--5-----------------------x-----x-----x----|
|--5-----------------------x-----x-----x----|


  D
   ~~~
   E.  S  S  S  E  +S   S  S  S  S  S  S  S
|-----16-14-16-17-(17)-16-14-16-17-16-14-16-|
|-17----------------------------------------|
|-------------------------------------------|
|-------------------------------------------|
|-------------------------------------------|
|-------------------------------------------|
|
|               ~~~~~~~
|  Q.           E  +E      E     E     E
|-------------------------------------------|
|-------------------------------------------|
|---------------8--(8)-----8-----8-----8----|
|--4-----------------------x-----x-----x----|
|--5-----------------------x-----x-----x----|
|--0-----------------------x-----x-----x----|


  A5                                                                      F#
   T  T  T  T  T  T  T  T  T  T  T  T  T  T  T  T  T  T  T  T  T  T  T  T  T  T  T  T  T  T  T  T
|-19p16----16-19p16----16-19p16----16-19p16----16-21p16----16-19p16----16-21p16----16-19p16----16--|
|-------17----------17----------17----------17----------17----------17----------17----------17-----|
|--------------------------------------------------------------------------------------------------|
|--------------------------------------------------------------------------------------------------|
|--------------------------------------------------------------------------------------------------|
|--------------------------------------------------------------------------------------------------|
|
|  PM---------------------------------------------------------------------------------|
|  E           E           E           E           E           E           E           E
|--------------------------------------------------------------------------------------------------|
|--------------------------------------------------------------------------------------------------|
|-10----------10----------10----------10----------10----------10----------12----------12-----------|
|--7-----------7-----------7-----------7-----------7-----------7-----------------------------------|
|--0-----------0-----------0-----------0-----------0-----------0-----------9-----------9-----------|
|--------------------------------------------------------------------------------------------------|


                                               ~~~~~~~
   a     +E.     a     +S   +S   a     +E      S  +Q            Q
|-19b21-(19)----19b21-(19)-(19)-19b21-(19)----19-(19)-------------------||
|-----------------------------------------------------------------------||
|-----------------------------------------------------------------------||
|-----------------------------------------------------------------------||
|-----------------------------------------------------------------------||
|--------------------------------------------------------------17\------||
|
|         S   E         S    E              S  S  +S   S  S  S  S  S  E
|-----------------------------------------------------------------------||
|-----------------------------------------------------------------------||
|------------12-------------13----------------13-(13)-15-13-12-13p12----||
|--------12------------12------------------12------------------------12-||
|-----------------------------------------------------------------------||
|-----------------------------------------------------------------------||


 Outro
  D
  W
|----------------------------------|
|----------------------------------|
|----------------------------------|
|----------------------------------|
|----------------------------------|
|----------------------------------|
|
|                           ~~~
| Q  S S S S S S S     +S  +E  S S
|----------------------------------|
|----------------------------------|
|-0------------7-8b10==(8)r(8)-0-0-|
|-0------7-7s9-----------------0-0-|
|-0--4h5-----------------------0-0-|
|-0--------------------------------|


                                 ~~~
  E  S  S S  S  S S  S  S  S  S  E. S
|-------------------------------------|
|-------------------------------------|
|-------------------------------12--0-|
|---11h12---11h12---12h14-11h12-------|
|-0-------0-------0-------------------|
|-------------------------------------|


   E  E  S  E S  a      +E.  +S   S  S  E
|-----------------------------------------|
|-----------------------------------------|
|----------12-0-13b15==(13)r(13)-13p12----|
|----12--------------------------------12-|
|-10----10--------------------------------|
|-----------------------------------------|


  D
                            ~~~                                     ~~~
  Q  S S S S S S S     +S  +E  S S   E  S  S S  S  S S  S  S  S  S  E. S
|----------------------------------|-------------------------------------|
|----------------------------------|-------------------------------------|
|-0------------7-8b10==(8)r(8)-0-0-|-------------------------------12--0-|
|-0------7-7s9-----------------0-0-|---11h12---11h12---12h14-11h12-------|
|-0--4h5-----------------------0-0-|-0-------0-------0-------------------|
|-0--------------------------------|-------------------------------------|


   E  E  S  E S  a      +E.  +S   S  S  E
|-----------------------------------------|
|-----------------------------------------|
|----------12-0-13b15==(13)r(13)-13p12----|
|----12--------------------------------12-|
|-10----10--------------------------------|
|-----------------------------------------|


  D
                            ~~~                                     ~~~
  Q  S S S S S S S     +S  +E  S S   E  S  S S  S  S S  S  S  S  S  E. S
|----------------------------------|-------------------------------------|
|----------------------------------|-------------------------------------|
|-0------------7-8b10==(8)r(8)-0-0-|-------------------------------12--0-|
|-0------7-7s9-----------------0-0-|---11h12---11h12---12h14-11h12-------|
|-0--4h5-----------------------0-0-|-0-------0-------0-------------------|
|-0--------------------------------|-------------------------------------|


   E  E  S  E S  a      +E.  +S   S  S  E
|-----------------------------------------|
|-----------------------------------------|
|----------12-0-13b15==(13)r(13)-13p12----|
|----12--------------------------------12-|
|-10----10--------------------------------|
|-----------------------------------------|


  D
                            ~~~                                     ~~~
  Q  S S S S S S S     +S  +E  S S   E  S  S S  S  S S  S  S  S  S  E. S
|----------------------------------|-------------------------------------|
|----------------------------------|-------------------------------------|
|-0------------7-8b10==(8)r(8)-0-0-|-------------------------------12--0-|
|-0------7-7s9-----------------0-0-|---11h12---11h12---12h14-11h12-------|
|-0--4h5-----------------------0-0-|-0-------0-------0-------------------|
|-0--------------------------------|-------------------------------------|


   E  E  S  E S  a      +E.  +S   S  S  E
|-----------------------------------------|
|-----------------------------------------|
|----------12-0-13b15==(13)r(13)-13p12----|
|----12--------------------------------12-|
|-10----10--------------------------------|
|-----------------------------------------|


                                      >
                               ~~~
  E S S S S S S S S S     +S  +E  E   H.      Q    W          W
|-----------------------------------|------------|----------|------*|
|-----------------------------------|------------|----------|------*|
|-----------------7-8b10==(8)r(8)---|------------|----------|------*|
|-------------7s9-------------------|------------|----------|------*|
|-0-0-0-4h5-----------------------0-|-0----------|----------|------*|
|-0-0-0-----0-----------------------|------------|----------|------*|




--------------------------------------------------------------------------------


Duration Legend
---------------
W - whole; H - half; Q - quarter; E - 8th; S - 16th; T - 32nd; X - 64th; a - acciaccatura
+ - note tied to previous; . - note dotted; .. - note double dotted
Uncapitalized letters represent notes that are staccato (1/2 duration)
Irregular groupings are notated above the duration line
Duration letters will always appear directly above the note/fret number it represents the
duration for.  Duration letters with no fret number below them represent rests.  Multi-
bar rests are notated in the form Wxn, where n is the number of bars to rest for.  Low
melody durations appear below the staff

Tablature Legend
----------------
 h   - hammer-on
 p   - pull-off
 b   - bend
 pb  - pre-bend
 r   - bend release (if no number after the r, then release immediately)
 /\  - slide into or out of (from/to "nowhere")
 s   - legato slide
 S   - shift slide
 - natural harmonic
[n]  - artificial harmonic
n(n) - tapped harmonic
 ~   - vibrato
 tr  - trill
 T   - tap
 TP  - trem. picking
 PM  - palm muting
\n/  - tremolo bar dip; n = amount to dip
 \n  - tremolo bar down
 n/  - tremolo bar up
/n\  - tremolo bar inverted dip
 =   - hold bend; also acts as connecting device for hammers/pulls
 <> - volume swell (louder/softer)
 x   - on rhythm slash represents muted slash
 o   - on rhythm slash represents single note slash

Misc Legend
-----------
 |  - bar
||  - double bar
||o - repeat start
o|| - repeat end
*|  - double bar (ending)
 :  - bar (freetime)
 $  - Segno
 &  - Coda
Tempo markers -  = BPM(8/16=s8/s16), where s8 = swing 8ths, s16 = swing 16ths

Tap to rate this tab
 
# A B C D E F G H I J K L M N O P Q R S T U V W X Y Z