Song name
# A B C D E F G H I J K L M N O P Q R S T U V W X Y Z

Creed - Young Grow Old tab

Gtr I (D A D G B E) - 'Guitar 1'
Gtr II (D A D G B E) - 'Guitar 2'
Gtr III (D A D G B E) - 'Guitar 3'


 Intro
  Q=100
  EbD5    EbD5    EbD5      EbD     EbD     Eb
 4/4
  Gtr I
  PM----------------|
  S E E S S E E S S S S S   S E E S S E E S S S S S
|-------------------------|-------------------------|
|-------------------------|-------------------------|
|-------------------------|-8-7-7-7-8-7-7-7-8-8-8-8-|
|-1-0-0-0-1-0-0-0-1-0-0-0-|-------------------------|
|-1-0-0-0-1-0-0-0-1-0-0-0-|-6-5-5-5-6-5-5-5-6-6-6-6-|
|-1-0-0-0-1-0-0-0-1-0-0-0-|-------------------------|


 Pre-Verse
  D5    D   D5   E F  G         D5  C D E    D5  B C D D5
                                                       PM|
  E S S S S E. S S  S   E.  S   S S S S E. S S S S S E S S
|-----------------------------|----------------------------|
|-----------------------------|----------------------------|
|-------7-7------9s10-/12--12-|-----5s7-9--9-----4s5-7-----|
|-0-0-0-----0--0--------------|-0-0----------0-0-------0-0-|
|-0-0-0-5-5-0--0-7s=8-/10--10-|-0-0-3s5-7--7-0-0-2s3-5-0-0-|
|-0-0-0-----0--0--------------|-0-0----------0-0-------0-0-|


  F5D5D   D5   E F  G         D5  C D E    D5  B C D D5
                                                     PM|
  E E S S E. S S  S   E.  S   S S S S E. S S S S S E S S
|---------------------------|----------------------------|
|---------------------------|----------------------------|
|-----7-7------9s10-/12--12-|-----5s7-9--9-----4s5-7-----|
|-3-0-----0--0--------------|-0-0----------0-0-------0-0-|
|-3-0-5-5-0--0-7s=8-/10--10-|-0-0-3s5-7--7-0-0-2s3-5-0-0-|
|-3-0-----0--0--------------|-0-0----------0-0-------0-0-|


  F5D5                              F5D5
  Gtr II
  E H.        E     H.            Q
|----------------|----------------------|
|----------------|----------------------|
|----------------|----------------------|
|---x\--------x\-|--x\------------------|
|---x\--------x\-|--x\------------------|
|---x\--------x\-|--x\------------------|
|
| Gtr I
|                             PM--|
| E E  H.          +H     +E  S S S E S
|----------------|----------------------|
|------3---------|-(3)----(3)-----------|
|------2---------|-(2)----(2)-----------|
|-3-0--0---------|-(0)----(0)-0-0-0-3-0-|
|-3-0--0---------|-(0)----(0)-0-0-0-3-0-|
|-3-0--0---------|-(0)----(0)-0-0-0-3-0-|


 Verse
  F5D5                                                      F5D5
  Gtr I
                                                      PM--|
  E E +H.        +W           +W           +H     +E  S S S E S
|--------------|------------|------------|-----------------------|
|--------------|------------|------------|-----------------------|
|--------------|------------|------------|-----------------------|
|-3-0-(0)------|-(0)--------|-(0)--------|-(0)----(0)-0-0-0-3-0--|
|-3-0-(0)------|-(0)--------|-(0)--------|-(0)----(0)-0-0-0-3-0--|
|-3-0-(0)------|-(0)--------|-(0)--------|-(0)----(0)-0-0-0-3-0--|


                             Interlude
  F5D5                        D5
                              PM--------------------|
  E E +H.        +W           S S S S S S S S S S S S S S S S
|--------------|------------|---------------------------------|
|--------------|------------|---------------------------------|
|--------------|------------|---------------------------------|
|-3-0-(0)------|-(0)--------|-0-0-0-0-0-0-0-0-0-0-0-0-0-0-0-0-|
|-3-0-(0)------|-(0)--------|-0-0-0-0-0-0-0-0-0-0-0-0-0-0-0-0-|
|-3-0-(0)------|-(0)--------|-0-0-0-0-0-0-0-0-0-0-0-0-0-0-0-0-|


                                                 Verse 2
  C D   E F  G              C5        B5     Bb5  D5           D5
                 ~~~~~~~~~
  S e e e  e  S  Q   +E      E.  E  S E. E S Q    Q  H.        W
|-------------------------|---------------------|------------|------|
|-------------------------|---------------------|------------|------|
|-5-7-7-9-10-12-12--(12)\-|---------------------|------------|------|
|-------------------------|-10--10-10-9--9-9-8--|-0--x\------|-0----|
|-3-5-5-7--8-10-10--(10)\-|-10--10-10-9--9-9-8--|-0--x\------|-0----|
|-------------------------|-10--10-10-9--9-9-8--|-0--x\------|-0----|


                                    $
                                F5D5   F5D5
                          PM--|
  +W           +H     +E  S S S E S    E E +H.
|------------|----------------------||--------------|
|------------|----------------------||--------------|
|------------|----------------------||--------------|
|-(0)--------|-(0)----(0)-0-0-0-3-0-||-3-0-(0)------|
|-(0)--------|-(0)----(0)-0-0-0-3-0-||-3-0-(0)------|
|-(0)--------|-(0)----(0)-0-0-0-3-0-||-3-0-(0)------|


              Pre-Chorus
               D5
               PM--------------------|
  +W           S S S S S S S S S S S S S S S S
|------------|---------------------------------|
|------------|---------------------------------|
|------------|---------------------------------|
|-(0)--------|-0-0-0-0-0-0-0-0-0-0-0-0-0-0-0-0-|
|-(0)--------|-0-0-0-0-0-0-0-0-0-0-0-0-0-0-0-0-|
|-(0)--------|-0-0-0-0-0-0-0-0-0-0-0-0-0-0-0-0-|


  C D   E F  G              EbD5    EbD5    EbD5
                 ~~~~~~~~~  PM----------------|
  S e e e  e  S  Q   +E     S E E S S E E S S S S S
|-------------------------|-------------------------|
|-------------------------|-------------------------|
|-5-7-7-9-10-12-12--(12)\-|-------------------------|
|-------------------------|-1-0-0-0-1-0-0-0-1-0-0-0-|
|-3-5-5-7--8-10-10--(10)\-|-1-0-0-0-1-0-0-0-1-0-0-0-|
|-------------------------|-1-0-0-0-1-0-0-0-1-0-0-0-|


  EbD     EbD     EbD
  S E E S S E E S S S S S
|---------------------------|
|---------------------------|
|-8-7-7-7-8-7-7-7-8-7-7-7/--|
|---------------------------|
|-6-5-5-5-6-5-5-5-6-5-5-5/--|
|---------------------------|


  Eb  D        Eb D        Eb D
    S  E  E  S  S  E  E  S  S  S  S  S
|--------------------------------------|
|--------------------------------------|
|-/20-19-19-19-20-19-19-19-20-19-19-19-|
|--------------------------------------|
|-/18-17-17-17-18-17-17-17-18-17-17-17-|
|--------------------------------------|


 Chorus
  D5    D   D5   E F  G         D5  C D E    D5  B C D D5
                                                       PM|
  E S S S S E. S S  S   E.  S   S S S S E. S S S S S E S S
|-----------------------------|----------------------------|
|-----------------------------|----------------------------|
|-------7-7------9s10-/12--12-|-----5s7-9--9-----4s5-7-----|
|-0-0-0-----0--0--------------|-0-0----------0-0-------0-0-|
|-0-0-0-5-5-0--0-7s=8-/10--10-|-0-0-3s5-7--7-0-0-2s3-5-0-0-|
|-0-0-0-----0--0--------------|-0-0----------0-0-------0-0-|


  F5D5D   D5   E F  G         D5  C D E    D5  B C D D5
                                                     PM|
  E E S S E. S S  S   E.  S   S S S S E. S S S S S E S S
|---------------------------|----------------------------|
|---------------------------|----------------------------|
|-----7-7------9s10-/12--12-|-----5s7-9--9-----4s5-7-----|
|-3-0-----0--0--------------|-0-0----------0-0-------0-0-|
|-3-0-5-5-0--0-7s=8-/10--10-|-0-0-3s5-7--7-0-0-2s3-5-0-0-|
|-3-0-----0--0--------------|-0-0----------0-0-------0-0-|


  F   D5D   D5   E F  G         D5  C D E    D5  B C D D5
                                                       PM|
  E   E S S E. S S  S   E.  S   S S S S E. S S S S S E S S
|-----------------------------|----------------------------|
|-----------------------------|----------------------------|
|-------7-7------9s10-/12--12-|-----5s7-9--9-----4s5-7-----|
|-3b4-------0--0--------------|-0-0----------0-0-------0-0-|
|-----0-5-5-0--0-7s=8-/10--10-|-0-0-3s5-7--7-0-0-2s3-5-0-0-|
|-----0-----0--0--------------|-0-0----------0-0-------0-0-|


                                                To Coda
  F5D5D   D5   E F  G         D5  C D E    D5  B C D D5
                                                     PM|
  E E S S E. S S  S   E.  S   S S S S E. S S S S S E S S
|---------------------------|----------------------------|
|---------------------------|----------------------------|
|-----7-7------9s10-/12--12-|-----5s7-9--9-----4s5-7-----|
|-3-0-----0--0--------------|-0-0----------0-0-------0-0-|
|-3-0-5-5-0--0-7s=8-/10--10-|-0-0-3s5-7--7-0-0-2s3-5-0-0-|
|-3-0-----0--0--------------|-0-0----------0-0-------0-0-|


 Interlude
  F5D5                           F   D   F   D                       F
                           PM--|
  E E H.        +H     +E  S S S E   S   E   E +H.        +H.      S E.
|-------------|------------------------|----------------|-------------------|
|-----3-------|-(3)----(3)-------------|----------------|-------------------|
|-----2-------|-(2)----(2)-------------|----------------|-------------------|
|-3-0-0-------|-(0)----(0)-0-0-0-3b4---|-3b4------------|-------------------|
|-3-0-0-------|-(0)----(0)-0-0-0-------|----------------|-------------------|
|-3-0-0-------|-(0)----(0)-0-0-0-----0-|-----0-(0)------|-(0)------0-3b3.5--|


                                              D.S. al Coda
  D                                                     F5D5
                                                  PM--|
  W          +W           +W           +H     +E  S S S E S
|----------|------------|------------|-----------------------|
|----------|------------|------------|-----------------------|
|----------|------------|------------|-----------------------|
|----------|------------|------------|------------0-0-0-3-0--|
|----------|------------|------------|------------0-0-0-3-0--|
|-0--------|-(0)--------|-(0)--------|-(0)----(0)-0-0-0-3-0--|


  &
  EbD5    EbD5    EbD5      EbD     EbD     EbD
  PM----------------|
  S E E S S E E S S S S S   S E E S S E E S S S S S
|-------------------------|--------------------------|
|-------------------------|--------------------------|
|-------------------------|-8-7-7-7-8-7-7-7-8-7-7-7/-|
|-1-0-0-0-1-0-0-0-1-0-0-0-|--------------------------|
|-1-0-0-0-1-0-0-0-1-0-0-0-|-6-5-5-5-6-5-5-5-6-5-5-5/-|
|-1-0-0-0-1-0-0-0-1-0-0-0-|--------------------------|


                                          Bridge
  Eb  D        Eb D        Eb D            D     Bb/DD     D5  D G5/D
                                           PM--|     PM--|
    S  E  E  S  S  E  E  S  S  S  S  S     S S S S E S S S S E S E.
|--------------------------------------||---------------------------|
|--------------------------------------||o--------------------------|
|-/20-19-19-19-20-19-19-19-20-19-19-19-||---------------------------|
|--------------------------------------||--------8---------7-----5--|
|-/18-17-17-17-18-17-17-17-18-17-17-17-||o-5-5-5-5---5-5-5-5---5-5--|
|--------------------------------------||--0-0-0-----0-0-0-----0----|


  D     D                  D     Bb/DD     D5  D G5/D D     D
  PM--|     PM--|          PM--|     PM--|            PM--|     PM--|
  S S S S E S S S S E Q    S S S S E S S S S E S E.   S S S S E S S S S E Q
|------------------------|--------------------------|------------------------|
|------------------------|--------------------------|------------------------|
|------------------------|--------------------------|------------------------|
|-------4---------4------|-------8---------7-----5--|-------4---------4------|
|-5-5-5-5---5-5-5-5------|-5-5-5-5---5-5-5-5---5-5--|-5-5-5-5---5-5-5-5------|
|-0-0-0-----0-0-0-----0--|-0-0-0-----0-0-0-----0----|-0-0-0-----0-0-0-----0--|


  1.
  D     Bb    D     A     D G F#  D     D
  PM--| ~~~~~~PM--| ~~~~~~        PM--|     PM--|
  S S S S +E  S S S S +E  S E S   S S S S E S S S S E Q
|-------------------------------|------------------------|
|-------------------------------|------------------------|
|-------------------------------|------------------------|
|-------8-(8)-------7-(7)---5p4-|-------4---------4------|
|-------------------------------|-------5---------5------|
|-0-0-0-------0-0-0-------0-----|-0-0-0-----0-0-0-----0--|


  D     Bb    D     A     D G F#  D     D
  PM--| ~~~~~~PM--| ~~~~~~        PM--|     PM--|
  S S S S +E  S S S S +E  S E S   S S S S E S S S S E Q
|-------------------------------|-------------------------||
|-------------------------------|------------------------o||
|-------------------------------|-------------------------||
|-------8-(8)-------7-(7)---5p4-|-------4---------4-------||
|-------------------------------|-------5---------5------o||
|-0-0-0-------0-0-0-------0-----|-0-0-0-----0-0-0-----0---||


  2.
  Bb/D   D5     G5/D D                 Bb/D   D5     G5/D D
  E. E S E. E S Q    E E E E E E E E   E. E S E. E S Q    E E E E E E E E
|------------------|-----------------|------------------|------------------|
|------------------|-----------------|------------------|------------------|
|------------------|-----------------|------------------|------------------|
|-8--8-8-7--7-7-5--|-4-4-4-4-4-4-4-4-|-8--8-8-7--7-7-5--|-4-4-4-4-4-4-4-4--|
|-5--5-5-5--5-5-5--|-5-5-5-5-5-5-5-5-|-5--5-5-5--5-5-5--|-5-5-5-5-5-5-5-5--|
|-0--0-0-0--0-0-0--|-0-0-0-0-0-0-0-0-|-0--0-0-0--0-0-0--|-0-0-0-0-0-0-0-0--|


 Bridge 2
  Bb5    A5     G5      D
                              PM--|       PM--|     PM|
  E. E S E. E S E S S   S S S S S S S S S S S S S S S S
|---------------------|---------------------------------|
|---------------------|---------------------------------|
|---------------------|-7-7---------7-7---------7-7-----|
|-8--8---7--7---5-----|---------------------------------|
|-8--8---7--7---5-----|-5-5---------5-5---------5-5-----|
|-8--8-0-7--7-0-5-0-0-|-------0-0-0-------0-0-0-----0-0-|


    Bb5    A5     G5      D
                                PM--|       PM--|     PM|
    E. E S E. E S E S S   S S S S S S S S S S S S S S S S
||----------------------|----------------------------------||
||o---------------------|---------------------------------o||
||----------------------|-7-7---------7-7---------7-7------||
||--8--8---7--7---5-----|----------------------------------||
||o-8--8---7--7---5-----|-5-5---------5-5---------5-5-----o||
||--8--8-0-7--7-0-5-0-0-|-------0-0-0-------0-0-0-----0-0--||


  Bb5    A5     G5      D   D5
                            \6________/0_____
  E. E S E. E S E S S   Q.  E    +E  +Q.
|---------------------|---------------------|
|---------------------|---------------------|
|---------------------|-7-------------------|
|-8--8---7--7---5-----|-----0----(0)-(0)----|
|-8--8---7--7---5-----|-5---0----(0)-(0)----|
|-8--8-0-7--7-0-5-0-0-|-----0----(0)-(0)----|


 Pre-Chorus
  D5
  Gtr I
  W                       +W
|-----------------------|-------------------------|
|-----------------------|-------------------------|
|-----------------------|-------------------------|
|-0---------------------|-(0)---------------------|
|-0---------------------|-(0)---------------------|
|-0---------------------|-(0)---------------------|
|
| Gtr III
| E. E S S S E. E S S S    E. E S S S E E   E   E
|-----------------------|-------------------------|
|-----------------------|-------------------------|
|-----------------------|-------------------------|
|--------2h3-5--3-------|--2--2-------------------|
|-5-----------------3h5-|---------2h3-5-----------|
|----0-0----------0-----|-------0-------3b4-3b4-0-|


                                             D5
                                             <
  +W                       +H.               Q
|------------------------|-------------------------|
|------------------------|-------------------------|
|------------------------|-------------------------|
|-(0)--------------------|-(0)---------------0-----|
|-(0)--------------------|-(0)---------------0-----|
|-(0)--------------------|-(0)---------------0-----|
|
|  E. E S S S E. E S S S    E. E S S S E E   E   E
|------------------------|-------------------------|
|------------------------|-------------------------|
|------------------------|-------------------------|
|---------2h3-5--3-------|--2--2-------------------|
|--5-----------------3h5-|---------2h3-5-----------|
|-----0-0----------0-----|-------0-------3b4-3b4-0-|


 Final Chorus
  D5    D   D5   E F  G         D5  C D E    D5  B C D D5
                                                       PM|
  E S S S S E. S S  S   E.  S   S S S S E. S S S S S E S S
|-----------------------------|----------------------------|
|-----------------------------|----------------------------|
|-------7-7------9s10-/12--12-|-----5s7-9--9-----4s5-7-----|
|-0-0-0-----0--0--------------|-0-0----------0-0-------0-0-|
|-0-0-0-5-5-0--0-7s=8-/10--10-|-0-0-3s5-7--7-0-0-2s3-5-0-0-|
|-0-0-0-----0--0--------------|-0-0----------0-0-------0-0-|


  F5D5D   D5   E F  G         D5  C D E    D5  B C D D5
                                                     PM|
  E E S S E. S S  S   E.  S   S S S S E. S S S S S E S S
|---------------------------|----------------------------|
|---------------------------|----------------------------|
|-----7-7------9s10-/12--12-|-----5s7-9--9-----4s5-7-----|
|-3-0-----0--0--------------|-0-0----------0-0-------0-0-|
|-3-0-5-5-0--0-7s=8-/10--10-|-0-0-3s5-7--7-0-0-2s3-5-0-0-|
|-3-0-----0--0--------------|-0-0----------0-0-------0-0-|


  F   D5D   D5   E F  G         D5  C D E    D5  B C D D5
                                                       PM|
  E   E S S E. S S  S   E.  S   S S S S E. S S S S S E S S
|-----------------------------|----------------------------|
|-----------------------------|----------------------------|
|-------7-7------9s10-/12--12-|-----5s7-9--9-----4s5-7-----|
|-3b4-------0--0--------------|-0-0----------0-0-------0-0-|
|-----0-5-5-0--0-7s=8-/10--10-|-0-0-3s5-7--7-0-0-2s3-5-0-0-|
|-----0-----0--0--------------|-0-0----------0-0-------0-0-|


  F5D5D   D5   E F  G         D5  C D E    D5  B C D
  E E S S E. S S  S   E.  S   S S S S E. S S S S S Q
|---------------------------|-------------------------|
|---------------------------|-------------------------|
|-----7-7------9s10-/12--12-|-----5s7-9--9-----4s5-7--|
|-3-0-----0--0--------------|-0-0----------0-0--------|
|-3-0-5-5-0--0-7s=8-/10--10-|-0-0-3s5-7--7-0-0-2s3-5--|
|-3-0-----0--0--------------|-0-0----------0-0--------|


 Outro
  EbD5    EbD5    EbD5      EbD     EbD     EbD
  PM----------------|
  S E E S S E E S S S S S   S E E S S E E S S S S S
|-------------------------|--------------------------|
|-------------------------|--------------------------|
|-------------------------|-8-7-7-7-8-7-7-7-8-7-7-7/-|
|-1-0-0-0-1-0-0-0-1-0-0-0-|--------------------------|
|-1-0-0-0-1-0-0-0-1-0-0-0-|-6-5-5-5-6-5-5-5-6-5-5-5/-|
|-1-0-0-0-1-0-0-0-1-0-0-0-|--------------------------|


  Eb  D        Eb D        Eb D
    S  E  E  S  S  E  E  S  S  S  S  S
|--------------------------------------|
|--------------------------------------|
|-/20-19-19-19-20-19-19-19-20-19-19-19-|
|--------------------------------------|
|-/18-17-17-17-18-17-17-17-18-17-17-17-|
|--------------------------------------|


  Eb D        Eb D        Eb D       D5
                           |--3--|
   S  E  E  S  S  E  E  S  E  E  E   W
|----------------------------------|------*|
|----------------------------------|------*|
|-20-19-19-19-20-19-19-19-20-19-19-|------*|
|----------------------------------|-0----*|
|-18-17-17-17-18-17-17-17-18-17-17-|-0----*|
|----------------------------------|-0----*|




--------------------------------------------------------------------------------


Duration Legend
---------------
W - whole; H - half; Q - quarter; E - 8th; S - 16th; T - 32nd; X - 64th; a - acciaccatura
+ - note tied to previous; . - note dotted; .. - note double dotted
Uncapitalized letters represent notes that are staccato (1/2 duration)
Irregular groupings are notated above the duration line
Duration letters will always appear directly above the note/fret number it represents the
duration for.  Duration letters with no fret number below them represent rests.  Multi-
bar rests are notated in the form Wxn, where n is the number of bars to rest for.  Low
melody durations appear below the staff

Tablature Legend
----------------
 h   - hammer-on
 p   - pull-off
 b   - bend
 pb  - pre-bend
 r   - bend release (if no number after the r, then release immediately)
 /\  - slide into or out of (from/to "nowhere")
 s   - legato slide
 S   - shift slide
 - natural harmonic
[n]  - artificial harmonic
n(n) - tapped harmonic
 ~   - vibrato
 tr  - trill
 T   - tap
 TP  - trem. picking
 PM  - palm muting
\n/  - tremolo bar dip; n = amount to dip
 \n  - tremolo bar down
 n/  - tremolo bar up
/n\  - tremolo bar inverted dip
 =   - hold bend; also acts as connecting device for hammers/pulls
 <> - volume swell (louder/softer)
 x   - on rhythm slash represents muted slash
 o   - on rhythm slash represents single note slash

Misc Legend
-----------
 |  - bar
||  - double bar
||o - repeat start
o|| - repeat end
*|  - double bar (ending)
 :  - bar (freetime)
 $  - Segno
 &  - Coda
Tempo markers -  = BPM(8/16=s8/s16), where s8 = swing 8ths, s16 = swing 16ths


Tap to rate this tab
# A B C D E F G H I J K L M N O P Q R S T U V W X Y Z