Guitaretab - guitar tabs
Song name
# A B C D E F G H I J K L M N O P Q R S T U V W X Y Z

Creed - Lullaby tab

I hope you'll enjoy ,escuse my poor english but i don't speak this language usually ,I hope you'll understand , ciaooo


[part 1]
E|---------------------------|
B|--3--2--2--0--0------------|
G|-----------------2--2------|
D|------0-----0------------0-|
A|--2--2--0--0------0-----0--|
E|--------------3--3--2------|

[part 2]
E|--------0-------------------|
B|--3--2-----3--0----3s5------|
G|-----------------2----------|
D|------0-----0--------0---0--|
A|--2--2--0--0------0-------0-|
E|--------------3--3----------|

[part 3]
E|--------0------------------|
B|--3--2-----3--0-----3------|
G|-----------------2---------|
D|------0-----0-------0---0--|
A|--2--2--0--0------0------0-|
E|--------------3--3---------|

[part 4]             end of the part
E|-----------------|-----------|
B|-----------------|-----------|
G|--0-----4--2-----|----0------|
D|-----4--------4--|--------40-|
A|-----------------|00---------|
E|--0-0h3-3--------|-----------|

[part 5]
E|--------------------------|
B|--------------3--2--2--0--|
G|--0-----4--2--------------|
D|-----4-----------0--------|
A|----------0h2-2-----0-----|
E|--0-0h3-3-----------------|

[part 6]  
E|--2--3-------|
B|--------2--3-|
G|-------------|
D|--0----------|
A|--------2----|
E|-------------|

[part 7]
G|--0----------------|
D|-----4--------0--0-|
A|--5--5--0--/4--4-0-|

Just listen to the cd to play the song ,but i think it's that:
verse1 :[part 1] [part 2] [part 1] [part 3] 
chorus :[part 4] [part 5]x2 [part 6] [part 4]x3(at the 3rd time don't play the end)[part 7]
verse2 :part 1 part 3 part 1 part 2
chorus once again
ending :play [part 4]x9  but the end of the part change
 end 1                    end 2
G|-------------|      G|---------2--|
D|00---4/5-4-0-|      D|00---4/5--0-|
A|-------------|      A|------------|
replay  [part 7]



[ Tab from: http://www.guitaretab.com/c/creed/24591.html ]
Related for Lullaby tab
Advertisement will be closed in 10 seconds