Song name
# A B C D E F G H I J K L M N O P Q R S T U V W X Y Z

Creed - One Last Breath tab

This is the real tab on Creed's One Last Breath

        If you like this tab and want to compliment
        on it than email me at dmixer70446@hotmail.com
s=slide
h=hammer
p=pull and release
first part of the beginning
1)--2--5--0h2------------------------------------------------3---
2)--3----------2--2--2--3--5--2h3--3--3--3--2h3-------------3-0--
3)--2-------------2-------------------4----------4--4------4-----
4)--0-------------2-------------------4-------------5-----5------
5)----------------0-------------------2-------------5---5--------
6)--------------------------------------------------3--3---------                       
second part of the beginning
             *play these two twos fast
1)--2--3--2--2-2-------------------------------2----------------3--------
2)--3-------------3--------2-3p--------------3---3----------------3------
3)--2--------------------2------2----------4-------4----------4-----4----
4)--0------------------2----------2------4-----------0------5---------0--
5)-------------------0--------------0--2------------------5--------------
6)------------------------------------------------------3----------------
play both of these two more times and then play:
1)--2--2--2--2-----------------2--2--2--2--2s3--2--2--2--2--2--2--2--2--2s3--2--2--0-----
2)--3--3--3--3--2--2--2--0-----3--3--3--3--3s4--3--3--3--3--2--2--2--2--2s3--2--2--0-----
3)--2--2--2--2--2--2--2--0--4--4--4--4--4--4s5--2--2--2--2--2--2--2--2--2s3--2--2--0--4--
4)--0--0--0--0--2--2--2--0--4-------------------0--0--0--0--2--2--2--2--2s3--2--2--0--4--
5)--------------0--0--0--0--2-------------------------------0--0--0--0--0-0--0--0--0--2--
6)---------------------------------------------------------------------------------------

When the metal part comes in,switch your guitar to distortion mode and play the third thing twice.The rest of the song is the same notes as the third part,but in a different order.Listen to the song and try to figure it out yourself.It's good practice.Your on your way of becoming a great guitarist.Bye for now.
Tap to rate this tab
# A B C D E F G H I J K L M N O P Q R S T U V W X Y Z