Song name
# A B C D E F G H I J K L M N O P Q R S T U V W X Y Z

Creed - Whos Got My Back tab

Gtr I (D A D G B E) - '(Clean)'
Gtr II (D A D G B E) - '(Clean)'
Gtr III (E A D G B E) - '(dist.)'


 Intro
                  Slowly Q=67
                  D5
 4/4
  Gtr I
  Wx32            S S S S S S S S S S S S S S S S
|-------------||----------------------------------|
|-------------||o---------------------------------|
|-------------||----------------------------------|
|-------------||--0-0-0-0-0-0-0-0-0-0-0-0-0-0-0-0-|
|-------------||o---------------------------------|
|-------------||----------------------------------|


  S S S S S S S S S S S S S S S S
|----------------------------------||
|---------------------------------o||
|----------------------------------||
|-0-0-0-0-0-0-0-0-0-0-0-0-0-0-0-0--||
|---------------------------------o||
|----------------------------------||


 Riff A
  D
   H                E.      S  +E     E
|-14---------------14------15-(15)---17---|
|-----------------------------------------|
|-11---------------11------12-(12)---14---|
|--0-0-0-0-0-0-0-0--0--0-0--0---0--0--0-0-|
|-----------------------------------------|
|-----------------------------------------|
   S S S S S S S S  S  S S  S   S  S  S S


   E.      S  H.
|-17------18-17------------------------|
|--------------------------------------|
|-14------15-14------------------------|
|--0--0-0--0--0--0-0-0-0-0-0-0-0-0-0-0-|
|--------------------------------------|
|--------------------------------------|
   S  S S  S  S  S S S S S S S S S S S


 4/4                                          2/4
   E.      S  +E     E    E.      S  Q          +Q        Q
|-20------18-(18)---17---15------17-15-------:-(15)---------------|
|--------------------------------------------:--------------------|
|-17------15-(15)---14---12------14-12-------:-(12)---------------|
|--0--0-0--0---0--0--0-0--0--0-0--0--0-0-0-0-:---0--0-0-0-0-0-0-0-|
|--------------------------------------------:--------------------|
|--------------------------------------------:--------------------|
   S  S S  S   S  S  S S  S  S S  S  S S S S     S  S S S S S S S


 4/4
  Q.           E    E.      S  +E     E
|-6----------------15------14-(14)---12---|
|-----------------------------------------|
|-3----------------12------11-(11)----9---|
|-0--0-0-0-0-0-0-0--0--0-0--0---0--0--0-0-|
|-----------------------------------------|
|-----------------------------------------|
  S  S S S S S S S  S  S S  S   S  S  S S


   a  E.      S  H.
|-12s14------15-14-------------------------|
|------------------------------------------|
|--9s11------12-11-------------------------|
|-----0--0-0--0--0--0-0-0-0-0-0-0-0-0-0-0--|
|------------------------------------------|
|------------------------------------------|
      S  S S  S  S  S S S S S S S S S S S


                                         $
   H.                        +S   E.
|-15------------------------(15)-15------||
|----------------------------------------||
|-12------------------------(12)-12------||
|--0--0-0-0-0-0-0-0-0-0-0-0---0---0--0-0-||
|----------------------------------------||
|----------------------------------------||
   S  S S S S S S S S S S S   S   S  S S


 Verse
  D
   H                E.      S  +E     E
|-14---------------14------15-(15)---17---|
|-----------------------------------------|
|-11---------------11------12-(12)---14---|
|--0-0-0-0-0-0-0-0--0--0-0--0---0--0--0-0-|
|-----------------------------------------|
|-----------------------------------------|
   S S S S S S S S  S  S S  S   S  S  S S


   E.      S  H.
|-17------18-17------------------------|
|--------------------------------------|
|-14------15-14------------------------|
|--0--0-0--0--0--0-0-0-0-0-0-0-0-0-0-0-|
|--------------------------------------|
|--------------------------------------|
   S  S S  S  S  S S S S S S S S S S S


   E.      S  +E     E    E.      S  Q
|-20------18-(18)---17---15------17-15-------|
|--------------------------------------------|
|-17------15-(15)---14---12------14-12-------|
|--0--0-0--0---0--0--0-0--0--0-0--0--0-0-0-0-|
|--------------------------------------------|
|--------------------------------------------|
   S  S S  S   S  S  S S  S  S S  S  S S S S


   +H                H                  H                E.      S  +E     E
|-(15)---------------6---------------|-14---------------14------15-(15)---17---|
|------------------------------------|-----------------------------------------|
|-(12)---------------3---------------|-11---------------11------12-(12)---14---|
|---0--0-0-0-0-0-0-0-0-0-0-0-0-0-0-0-|--0-0-0-0-0-0-0-0--0--0-0--0---0--0--0-0-|
|------------------------------------|-----------------------------------------|
|------------------------------------|-----------------------------------------|
    S  S S S S S S S S S S S S S S S    S S S S S S S S  S  S S  S   S  S  S S


   E.      S  H.
|-17------18-17------------------------|
|--------------------------------------|
|-11------15-14------------------------|
|--0--0-0--0--0--0-0-0-0-0-0-0-0-0-0-0-|
|--------------------------------------|
|--------------------------------------|
   S  S S  S  S  S S S S S S S S S S S


   E.      S  +E     E    E.      S  Q
|-20------18-(18)---17---15------17-15-------|
|--------------------------------------------|
|-17------15-(15)---14---12------14-12-------|
|--0--0-0--0---0--0--0-0--0--0-0--0--0-0-0-0-|
|--------------------------------------------|
|--------------------------------------------|
   S  S S  S   S  S  S S  S  S S  S  S S S S


 2/4                  4/4
   +Q        Q          H                E.      S  +E     E
|-(15)---------------:-14---------------14------15-(15)---17---|
|--------------------:-----------------------------------------|
|-(12)---------------:-11---------------11------12-(12)---14---|
|---0--0-0-0-0-0-0-0-:--0-0-0-0-0-0-0-0--0--0-0--0---0--0--0-0-|
|--------------------:-----------------------------------------|
|--------------------:-----------------------------------------|
    S  S S S S S S S    S S S S S S S S  S  S S  S   S  S  S S


   E.      S  H.
|-17------18-17------------------------|
|--------------------------------------|
|-14------15-14------------------------|
|--0--0-0--0--0--0-0-0-0-0-0-0-0-0-0-0-|
|--------------------------------------|
|--------------------------------------|
   S  S S  S  S  S S S S S S S S S S S


   E.      S  +E     E    E.      S  Q
|-20------18-(18)---17---15------17-15-------|
|--------------------------------------------|
|-17------15-(15)---14---12------14-12-------|
|--0--0-0--0---0--0--0-0--0--0-0--0--0-0-0-0-|
|--------------------------------------------|
|--------------------------------------------|
   S  S S  S   S  S  S S  S  S S  S  S S S S


 2/4                  4/4
   +Q        Q         Q.           E    E.      S  +E     E
|-(15)---------------:-6----------------15------14-(14)---12---|
|--------------------:-----------------------------------------|
|-(12)---------------:-3----------------12------11-(11)----9---|
|---0--0-0-0-0-0-0-0-:-0--0-0-0-0-0-0-0--0--0-0--0---0--0--0-0-|
|--------------------:-----------------------------------------|
|--------------------:-----------------------------------------|
    S  S S S S S S S   S  S S S S S S S  S  S S  S   S  S  S S


   a  E.      S  H.                          W
|-12s14------15-14------------------------|-15-------------------------------|
|-----------------------------------------|----------------------------------|
|--9s11------12-11------------------------|-12-------------------------------|
|-----0--0-0--0--0--0-0-0-0-0-0-0-0-0-0-0-|--0-0-0-0-0-0-0-0-0-0-0-0-0-0-0-0-|
|-----------------------------------------|----------------------------------|
|-----------------------------------------|----------------------------------|
      S  S S  S  S  S S S S S S S S S S S    S S S S S S S S S S S S S S S S


                                                             To Coda
   W                                  W
|-15-------------------------------|-14-------------------------------|
|----------------------------------|----------------------------------|
|-12-------------------------------|-11-------------------------------|
|--0-0-0-0-0-0-0-0-0-0-0-0-0-0-0-0-|--0-0-0-0-0-0-0-0-0-0-0-0-0-0-0-0-|
|----------------------------------|----------------------------------|
|----------------------------------|----------------------------------|
   S S S S S S S S S S S S S S S S    S S S S S S S S S S S S S S S S


                                       Interlude
  D
  Gtr I
   W                                     E.  S  E.  S  S  S  E  S  S  S  S
|-15---------------------------------||-14--14-14--14-14-14-14-14-14-14-14-|
|------------------------------------||--x---x--x---x--x--x--x--x--x--x--x-|
|-12---------------------------------||-11--11-11--11-11-11-11-11-11-11-11-|
|--0-0-0-0-0-0-0-0-0-0-0-0-0-0--0--0-||--0---0--0---0--0--0--0--0--0--0--0-|
|------------------------------------||--0---0--0---0--0--0--0--0--0--0--0-|
|------------------------------------||--0---0--0---0--0--0--0--0--0--0--0-|
|  S S S S S S S S S S S S S S  S  S
|
| Gtr II
|  H               Q       E    S  S     E.  S  E.  S  S  S  E  S  S  S  S
|------------------------------------||-14--14-14--14-14-14-14-14-14-14-14-|
|------------------------------------||--x---x--x---x--x--x--x--x--x--x--x-|
|------------------------------12p11-||-11--11-11--11-11-11-11-11-11-11-11-|
|-------------------------------0----||--0---0--0---0--0--0--0--0--0--0--0-|
|------------------------------------||--0---0--0---0--0--0--0--0--0--0--0-|
|------------------------------------||--0---0--0---0--0--0--0--0--0--0--0-|


                                             Chorus
  Dsus4                                       D
  Gtrs I, II
   S  S  S  S  E  S  S  S  S  S  S  S  S E     E.  S  E  S  S  E  E  S  S  E
|-14s15-15-15-15-15-15-15-15-15s17-17-17---||--------------------------------|
|--x-----x--x--x--x--x--x--x--x-----x--x-0-||--------------------------------|
|-11s12-12-12-12-12-12-12-12-12s14-14-14-0-||-11--11-11-11-11-11-11-11-11-11-|
|--0-----0--0--0--0--0--0--0--0-----0--0-0-||--x---x--0--0--0--x--x--0-----0-|
|--0-----0--0--0--0--0--0--0--0-----0--0-0-||--9---9--0--0--0--9--9--0-----0-|
|--0-----0--0--0--0--0--0--0--0-----0--0-0-||--0------0--0--0--0--0--0-----0-|


   E.  S  E.  S  +S   S  S  E  S S  S
|-------------------------------------|
|-------------------------------------|
|-12--12-12--12-(12)-12-12-12-12---17-|
|--x---x--x---x-------x--x--x--x----x-|
|-10---0-10--10-(10)-10-10-10-10-0-15-|
|--0------0---0--(0)--0--0--0--0-0----|


                                        2/4
   E S  S S  S  S  S  E  S  S  E  S  S   S  S  E  S  S E
|--------------------------------------:-----------------|
|--------------------------------------:-----------------|
|-17---15---14-14s12-12-12-14s12-12-12-:------12-12-12---|
|--x----x----x--x-----x--x--x-----x--x-:-------x--x--x---|
|-15---13---12-12s10-10-10-12s10-10-10-:---10-10-10-10-0-|
|--0-0----0-----0-----0--0--0-----0--0-:-0--0--0--0--0-0-|


 4/4
  Gtr I
  Q  S E  S  E  S  S  +E  E
|---------------------------|
|---------------------------|
|-3--3-3S12-12-12-11-(11)-9-|
|-x--x-x--x--x--x--x------x-|
|-1--1-1S10-10-10--9--(9)-7-|
|-0--0-0--0--0-----0--(0)-0-|
|
| Gtr II
| Q  S E  S  E  S  S  +E  E
|---------------------------|
|---------------------------|
|-3--3-3S12-12-12-11-(11)-9-|
|-x--x-x--x--x--x--x------x-|
|-1--1-1S10-10-10--9--(9)-7-|
|-0--0-0--0--0-----0--(0)-0-|


  a  E.  S  E.  S  S  S  E  S  S  S  S    H       S S S S S S S S
|--------------------------------------|---------------------------||
|--------------------------------------|---------------------------||
|-9s11--12-11--11-11-11-11-11-11-11-12-|-12------------------------||
|-x------x--x---x--x--x--x--x--x--x--x-|--x-------0-0-0-0-0-0-0-0--||
|-7s=9--10--9---9--9--9--9--9--9--9-10-|-10------------------------||
|-0---------0---0--0--0--0--0--0--0--0-|--0------------------------||
|
| a  E.  S  E.  S  S  S  E  S  S  S  S    Q   H.
|--------------------------------------|---------------------------||
|--------------------------------------|---------------------------||
|-9s11--12-11--11-11-11-11-11-11-11-12-|-12--12--------------------||
|-x------x--x---x--x--x--x--x--x--x--x-|--x---x--------------------||
|-7s=9--10--9---9--9--9--9--9--9--9-10-|-10--10--------------------||
|-0---------0---0--0--0--0--0--0--0--0-|--0------------------------||
                                          Q   H.


 Interlude
  D
  Gtr I
   H                E.      S  +E     E
|-14---------------14------15-(15)---17---|
|-----------------------------------------|
|-11---------------11------12-(12)---14---|
|--0-0-0-0-0-0-0-0--0--0-0--0---0--0--0-0-|
|-----------------------------------------|
|-----------------------------------------|
   S S S S S S S S  S  S S  S   S  S  S S


   E.      S  H.
|-17------18-17------------------------|
|--------------------------------------|
|-14------15-14------------------------|
|--0--0-0--0--0--0-0-0-0-0-0-0-0-0-0-0-|
|--------------------------------------|
|--------------------------------------|
   S  S S  S  S  S S S S S S S S S S S


   E.      S  +E     E    E.      S  Q
|-20------18-(18)---17---15------17-15-------|
|--------------------------------------------|
|-17------15-(15)---14---12------14-12-------|
|--0--0-0--0---0--0--0-0--0--0-0--0--0-0-0-0-|
|--------------------------------------------|
|--------------------------------------------|
   S  S S  S   S  S  S S  S  S S  S  S S S S


                                                 D.S. al Coda
 2/4                  4/4
   +Q        Q         Q.           E    E.      S  +E     E
|-(15)---------------|-6----------------15------14-(14)---12----|
|--------------------|------------------------------------------|
|-(12)---------------|-3----------------12------11-(11)----9----|
|---0--0-0-0-0-0-0-0-|-0--0-0-0-0-0-0-0--0--0-0--0---0--0--0-0--|
|--------------------|------------------------------------------|
|--------------------|------------------------------------------|
    S  S S S S S S S   S  S S S S S S S  S  S S  S   S  S  S S


  &
                                     Gtr III
                                     PM----------------------------|
   W                                 S S S S S S S S S S S S S S S S
|-15-------------------------------|---------------------------------|
|----------------------------------|---------------------------------|
|-12-------------------------------|---------------------------------|
|--0-0-0-0-0-0-0-0-0-0-0-0-0-0-0-0-|---------------------------------|
|----------------------------------|-9-9-9-9-9-9-9-9-9-9-9-9-9-9-9-9-|
|----------------------------------|-0-0-0-0-0-0-0-0-0-0-0-0-0-0-0-0-|
   S S S S S S S S S S S S S S S S


                                                     Chorus
                                                  $$
   PM------------|                                                 PM|
   S  S  S  S  S  S  S  S  S  S  S  S  S  S  S  S      Q  Q   E  E S S  E
|-------------------------------------------------||----------------------|
|-------------------------------------------------||o---------------------|
|-------------12-12-12-12-12-12-12-12-12-12-12-12-||--11-----11-11-----11-|
|--------------x--x--x--x--x--x--x--x--x--x--x--x-||---x------x--x------x-|
|-10-10-10-10-10-10-10-10-10-10-10-10-10-10-10-10-||o--9--0---9--9-0-0--9-|
|--0--0--0--0--0--0--0--0--0--0--0--0--0--0--0--0-||------0--------0-0----|


   Q   E.  S  S  S  E  E  S  S
|------------------------------|
|------------------------------|
|-12--12--12-12-12-12-12-12s17-|
|--x---x---x--x--x--x--x--x----|
|-10--10--10-10-10-10-10-10s15-|
|--0---0---0--0--0--0--0--0----|


                                2/4
                                                  PM|
   E.  S  +E   E  E.  S  E.  S    +S   S  E  S  S S S
|------------------------------|----------------------|
|------------------------------|----------------------|
|-17--15-(15)-14-12--14-12--12-|-(12)-12-12-12-12-----|
|--x---x-------x--x---x--x---x-|-------x--x--x--x-----|
|-15--13-(13)-12-10--12-10--10-|-(10)-10-10-10-10-----|
|--0---0--(0)--0--0---0--0---0-|--(0)--0--0--0--0-0-0-|


                                              To Dbl. Coda
 4/4
  Q  Q   E.  S  +E  E   a  E.  S  E.  S  S  S  E  S  S  S  S
|---------------------|--------------------------------------|
|---------------------|--------------------------------------|
|-3-----12--11-(11)-9-|-9s11--12-11--11-11-11-11-11-11-11-11-|
|-x------x---x------x-|-x------x--x---x--x--1--x--x--x--x--x-|
|-1-----10---9--(9)-7-|-7s=9--10--9---9--9--9--9--9--9--9--9-|
|----0---0---0--(0)-0-|-0---------0---0--0--0--0--0--0--0--0-|


  1.
   S  S  S  S  E  S  S  S  S  E  E  S  S
|-----------------------------------------||
|----------------------------------------o||
|-11s12-12-12-12-12-12-12-12-12-12-12-11--||
|--1-----1--1--1--1--1--1--1--1--1--1--1--||
|--9s10-10-10-10-10-10-10-10-10-10-10--9-o||
|--0-----0--0--0--0--0--0--0--0--0--0--0--||


 2.
   S  S  S  S  E  S  S  +S   S  S  S  Q
|-----------------------------------------|
|-----------------------------------------|
|-11s12-12-12-12-12-12-(12)-12-12-12------|
|--1-----1--1--1--1--1-------1--1--1------|
|--9s10-10-10-10-10-10-(10)-10-10-10------|
|--0-----0--0--0--0--0--(0)--0--0--0-14\--|


 Bridge                                 Bridge
  Gtr II
  PM------------------------------------------------------------------------|
  S  S S  S S S S  S  S   S S S S  S E    S   S S  S S S S  S S  S S S S  S E
|--------------------------------------|--------------------------------------|
|--------------------------------------|--------------------------------------|
|--------------------------------------|--------------------------------------|
|------7----7-8-7-----7-----7-8-7------|--------7----7-8-7----7----7-8-7------|
|-9-10-x-10-x---x-10--x--10-9---x-10-9-|--9--10-x-10-x---x-10-x-10-9---x-10-9-|
|-0----0----0---0-----0-----0---0----0-|--0-----0----0---0----0----0---0----0-|
|
| Gtr III
| H                  +H                  +W
|--------------------------------------|--------------------------------------|
|-3------------------(3)---------------|-(3)----------------------------------|
|-2------------------(2)---------------|-(2)----------------------------------|
|-0------------------(0)---------------|-(0)----------------------------------|
|-0------------------(0)---------------|-(0)----------------------------------|
|-0------------------(0)---------------|-(0)----------------------------------|


  H.      Q    W          W
|------------|----------|------|
|-3----------|----------|------|
|-2----------|----------|------|
|-0----------|----------|------|
|-0----------|----------|------|
|-0----------|----------|------|


  Gtr II
  PM----------------------------------
  S  S S  S S S S  S S  S S S S  S E
|------------------------------------|
|------------------------------------|
|------------------------------------|
|------7----7-8-1----7----7-8-7------|
|-9-10-x-10-x---x-10-x-10-9---x-10-9-|
|-0----0----0---0----0----0---0----0-|
|
| Gtr III
|                             <
| H                  Q        Q
|------------------------------------|
|-----------------------------3------|
|-----------------------------2------|
|-----------------------------0------|
|-----------------------------0------|
|-----------------------------0------|


 -----------------------------------------------------------------|
   S   S S  S  S  S S  S S  S S S S  S E    S   S S  S S S S  S E E Q
|----------------------------------------|-------------------------------|
|----------------------------------------|-------------------------------|
|----------------------------------------|-------------------------------|
|--------7-----7--8-7----7----7-8-7------|--------7----7-8-7----7--------|
|--9--10-x-10--x----x-10-x-10-9---x-10-9-|--9--10-x-10-x---x-10-x--------|
|--0-----0-----0----0----0----0---0------|--0-----0----0---0----0-0------|
|
| +Q          +H.                          +W
|----------------------------------------|-------------------------------|
|-(3)---------(3)------------------------|-(3)---------------------------|
|-(2)---------(2)------------------------|-(2)---------------------------|
|-(0)---------(0)------------------------|-(0)---------------------------|
|-(0)---------(0)------------------------|-(0)---------------------------|
|-(0)---------(0)------------------------|-(0)---------------------------|


  Gtr III
           PM|          PM|                   PM|          PM|
   S  S  E S S  S  S  E S S  S  E.    S  S  E S S  S  S  E S S  S  E.
|----------------------------------|----------------------------------|
|----------------------------------|----------------------------------|
|-11s12-14-----12s14-15-----12-11--|-11s12-14-----12s14-15-----12-11--|
|--x-----x------x-----x------x--x--|--x-----x------x-----x------x--x--|
|--9s10-12-0-0-10s12-13-0-0-10--9--|--9s10-12-0-0-10s12-13-0-0-10--9--|
|--0-----0-0-0----------0-0-----0--|--0-----0-0-0--0-------0-0-----0--|


           PM|          PM|                   PM|          PM|
   S  S  E S S  S  S  E S S  S  E.    S  S  E S S  S  S  E S S  S  E.
|----------------------------------|----------------------------------|
|----------------------------------|----------------------------------|
|-11s12-14-----12s14-15-----12-11--|-11s12-14-----12s14-15-----12-11--|
|--x-----x------x-----x------x--x--|--x-----x------x-----x------x--x--|
|--9s10-12-0-0-10s12-13-0-0-10--9--|--9s10-12-0-0-10s12-13-0-0-10--9--|
|--0-----0-0-0----------0-0-----0--|--0-----0-0-0--0-------0-0-----0--|


                                                D.S.S. al Dbl. Coda
  Gtr III
   S  S  S  S  E  S  S  S  S  S  S  S  S S S   Q  S E.  E.  S  +E  E
|--------------------------------------------|-----------------------||
|--------------------------------------------|-----------------------||
|-11s12-12-12-12-12-12-15-15-15-15-15-15-----|-3-------12--11-(11)-9-||
|--x-----x--x--x--x--x--x--x--x--x--x--x-----|-x--------x---x--(x)-x-||
|--9s10-10-10-10-10-10-13-13-13-13-13-13-0-0-|-1-------10---9--(9)-7-||
|--0-----0--0--0--0--0--0--0--0--0--0--0-0-0-|----0-0---0---0--(0)-0-||


  &&
  Gtr III
   S  S  S  S  E  S  S  S  S  E  S  S S S
|-----------------------------------------||
|-----------------------------------------||
|-11s12-12-12-12-12-12-14-14-14-14-14-----||
|--1-----1--1--1--1--1--1--1--1--1--1-----||
|--9s10-10-10-10-10-10-12-12-12-12-12-----||
|--0-----0--0--0--0--0--0--0--0--0--0-0-0-||


   Outro
    Gtr III
             PM|          PM|                   PM|          PM|
     S  S  E S S  S  S  E S S  S  E.    S  S  E S S  S  S  E S S  S  E.  4x
||-----------------------------------|-----------------------------------||
||o----------------------------------|----------------------------------o||
||--11s12-14-----12s14-15-----12-11--|-11s12-14-----12s14-15-----12-11---||
||---x-----x------x-----x------x--x--|--x-----x------x-----x------x--x---||
||o--9s10-12-0-0-10s12-13-0-0-10--9--|--9s10-12-0-0-10s12-13-0-0-10--9--o||
||---0-----0-0-0----------0-0-----0--|--0-----0-0-0--0-------0-0-----0---||


  Gtr III
           PM|          PM|                   PM|          PM|
   S  S  E S S  S  S  E S S  S  E.    S  S  E S S  S  S  E S S  S  E.
|----------------------------------|----------------------------------|
|----------------------------------|----------------------------------|
|-11s12-14-----12s14-15-----12-11--|-11s12-14-----12s14-15-----12-11--|
|--x-----x------x-----x------x--x--|--x-----x------x-----x------x--x--|
|--9s10-12-0-0-10s12-13-0-0-10--9--|--9s10-12-0-0-10s12-13-0-0-10--9--|
|--0-----0-0-0----------0-0-----0--|--0-----0-0-0--0-------0-0-----0--|


  Wx9
|--------*|
|--------*|
|--------*|
|--------*|
|--------*|
|--------*|




--------------------------------------------------------------------------------


Duration Legend
---------------
W - whole; H - half; Q - quarter; E - 8th; S - 16th; T - 32nd; X - 64th; a - acciaccatura
+ - note tied to previous; . - note dotted; .. - note double dotted
Uncapitalized letters represent notes that are staccato (1/2 duration)
Irregular groupings are notated above the duration line
Duration letters will always appear directly above the note/fret number it represents the
duration for.  Duration letters with no fret number below them represent rests.  Multi-
bar rests are notated in the form Wxn, where n is the number of bars to rest for.  Low
melody durations appear below the staff

Tablature Legend
----------------
 h   - hammer-on
 p   - pull-off
 b   - bend
 pb  - pre-bend
 r   - bend release (if no number after the r, then release immediately)
 /\  - slide into or out of (from/to "nowhere")
 s   - legato slide
 S   - shift slide
 - natural harmonic
[n]  - artificial harmonic
n(n) - tapped harmonic
 ~   - vibrato
 tr  - trill
 T   - tap
 TP  - trem. picking
 PM  - palm muting
\n/  - tremolo bar dip; n = amount to dip
 \n  - tremolo bar down
 n/  - tremolo bar up
/n\  - tremolo bar inverted dip
 =   - hold bend; also acts as connecting device for hammers/pulls
 <> - volume swell (louder/softer)
 x   - on rhythm slash represents muted slash
 o   - on rhythm slash represents single note slash

Misc Legend
-----------
 |  - bar
||  - double bar
||o - repeat start
o|| - repeat end
*|  - double bar (ending)
 :  - bar (freetime)
 $  - Segno
 &  - Coda
Tempo markers -  = BPM(8/16=s8/s16), where s8 = swing 8ths, s16 = swing 16ths


Tap to rate this tab
# A B C D E F G H I J K L M N O P Q R S T U V W X Y Z