Song name
# A B C D E F G H I J K L M N O P Q R S T U V W X Y Z

Creed - On My Sleeve tab

Tabbed by: Josh Daley

Tuning: Db Gb B E Ab Db (Both guitars)

Guitar 1: Chords    (Acoustic)
Guitar 2: Tablature (Acoustic/Electric)


Chords:

 Em9  Em  C   G  G[2]G/B  D  C(9) D/Gb
--0---0---0---3---3-------2---3---------|
--0---0---1---3---0---3---3---3----3----|
--0---0---0---0---0---0---2---0----2----|
--4---2---2---0---0---0---0---2----0----|
--2---2---3---2---2---2-------3----x----|
--0---0-------3---3----------------2----|



Intro/Verse:

  Em9             C                G[2]           D
----------0----------------------------------------------0^2-----|
------------0-------------0---------------1^0------3---3------0--|
--------0-----0-----0-----------0-----0---------0----2-----------|
------4---------4------2----------------0------------------------|
----2------------/3------------------------------/5--------------|
--0---------------0----------0-----3----------3------------------|

  Em9             C                G[2]           D
----------0------------------------------------------------0-2--|
------------0-------------0---------------1^0--------3---3------|
--------0-----0------0----------0-----0---------0------2--------|
------4---------4-------2---------------0-----------------------|
----2------------/3------------------------------/5-------------|
--0---------------0----------0-----3----------3-----------------|



Pre chorus:

  C                             Em9
-----------------0---0-------------------------0----------------|
-----------1-------3------1--------------0-------0--------------|
---------0---0----------0--------------0---0-------0---0--------|
-----0^2-------2---------------------4-------4-------4---4------|
--3--------------------------------2-----------------------0-2--|
----------------------------3-2-0-------------------------------|

  C                             G/B
-----------------0---0-------------------------------------------|
-----------1-------3----1--------3-------------------------------|
---------0---0------------0---0--0-------------------------------|
-----0^2-------2-----------------0--------------------------x-x--|
--3-------------------------3----2--------------------------x-x--|
------------------------------------------------------------x-x--|



First Chorus:

  Em         C(9)   G
-------0---x-3----x-3------------------x---|
-------0---x-3----x-3------------------x---|
-------0---x-0----x-0------------------x---|
-------2---x-2----x-0------------------x---|
--2----2---x-3----x-2------------------x---|
--0----0---x------x-3------------------x---|

  D/Gb              C(9)
------------------x-3----------------------|
--3---------------x-3----------------------|
--2---------------x-0----------------------|
--0---------------x-2----------------------|
--x---------------x-3----------------------|
--2---------------x-----------------0-3-2--|

  Em         C(9)   G
-------0---x-3----x-3------------------x---|
-------0---x-3----x-3------------------x---|
-------0---x-0----x-0------------------x---|
-------2---x-2----x-0------------------x---|
--2----2---x-3----x-2------------------x---|
--0----0---x------x-3------------------x---|

  D/Gb              C(9)
------------------x-3----------------------|
--3---------------x-3----------------------|
--2---------------x-0----------------------|
--0---------------x-2----------------------|
--x---------------x-3----------------------|
--2---------------x------------------------|



Second Chorus & Final Chorus:

  Em         C(9)   G
-------0---x-3----x-3------------------x---|
-------0---x-3----x-3------------------x---|
-------0---x-0----x-0------------------x---|
-------2---x-2----x-0------------------x---|
--2----2---x-3----x-2------------------x---|
--0----0---x------x-3------------------x---|

  D/Gb              C(9)
------------------x-3----------------------|
--3---------------x-3----------------------|
--2---------------x-0----------------------|
--0---------------x-2----------------------|
--x---------------x-3----------------------|
--2---------------x-----------------0-3-2--|

  Em         C(9)   G
-------0---x-3----x-3------------------x---|
-------0---x-3----x-3------------------x---|
-------0---x-0----x-0------------------x---|
-------2---x-2----x-0------------------x---|
--2----2---x-3----x-2------------------x---|
--0----0---x------x-3------------------x---|

  D/Gb              C(9)
------------------x-3---------------------------------------------------|
--3---------------x-3---------------------------------------------------|
--2---------------x-0--------------------------9-7----------------------|
--0---------------x-2-----------------------------10-9-7----------------|
--x---------------x-3-----------------------------------10-9-7----------|
--2---------------x-------------------------------------------10-8-7-5--|



Bridge:

Em
----------------------------------------------------------|
----------------------------------------------------------|
---12-12-12--11-11-11--11-11---12-12-12--11-11-11--11-11--|
----x--x--x---x--x--x---x--x----x--x--x---x--x--x---x--x--|
---10-10-10---9--9--9---9--9---10-10-10---9--9--9---9--9--|
----------------------------------------------------------|

G                              D/Gb
----------------------------------------------------------|
----------------------------------------------------------|
---17-17-17--16-16-16--16-16---17-17-17--16-16-16--16-16--|
----x--x--x---x--x--x---x--x----x--x--x---x--x--x---x--x--|
---15-15-15--14-14-14--14-14---15-15-15--14-14-14--14-14--|
----------------------------------------------------------|

Em
----------------------------------------------------------|
----------------------------------------------------------|
---12-12-12--11-11-11--11-11---12-12-12--11-11-11--11-11--|
----x--x--x---x--x--x---x--x----x--x--x---x--x--x---x--x--|
---10-10-10---9--9--9---9--9---10-10-10---9--9--9---9--9--|
----------------------------------------------------------|

G                              D/Gb
---------------------------------------------------------------------|
---------------------------------------------------------------------|
---17-17-17--16-16-16--16-16---17-17-17--16--5-4-2-------------------|
----x--x--x---x--x--x---x--x----x--x--x---x--------5-4-2-------------|
---15-15-15--14-14-14--14-14---15-15-15--14--------------5-3-2-------|
---------------------------------------------------------------5-3-2-|



Outro:

Em
----------------------------------------------------------|
----------------------------------------------------------|
---12-12-12--11-11-11--11-11---12-12-12--11-11-11--11-11--|
----x--x--x---x--x--x---x--x----x--x--x---x--x--x---x--x--|
---10-10-10---9--9--9---9--9---10-10-10---9--9--9---9--9--|
----------------------------------------------------------|

G                              D/Gb
----------------------------------------------------------|
----------------------------------------------------------|
---17-17-17--16-16-16--16-16---17-17-17--16-16-16---------|
----x--x--x---x--x--x---x--x----x--x--x---x--x--x---------|
---15-15-15--14-14-14--14-14---15-15-15--14-14-14---------|
----------------------------------------------------------|
Tap to rate this tab
# A B C D E F G H I J K L M N O P Q R S T U V W X Y Z