Song name
# A B C D E F G H I J K L M N O P Q R S T U V W X Y Z

Creed - Illusion tab

Gtr I (D A D G B E) - 'Untitled'
Gtr II (D A D G B E) - 'Untitled'


 Intro
  Moderately Slow Q=86
               N.C.   (B5)  (F5)
 4/4
  Gtrs I, II
  Wx4           E      +Q    +E   +E   +E   +Q
|------------|-----------------------------------|
|------------|-13-----(13)--(13)-(13)-(13)-(13)--|
|------------|-12b13==(12)--(12)-(12)-(12)-(12)--|
|------------|-----------------------------------|
|------------|-----------------------------------|
|------------|-----------------------------------|


  (D5)                                    (B5)                       (F5)
                    ~~                                                       ~~~~
                                                             |---3----|
   +Q    +E   S  S  E  S  S  S  S  S  S    Q        a       +S   +S   S  E  +H
|---------------------------------------|------------------------------------------|
|-(13)--(13)----------------------------|------------------------------------------|
|-(12)r=(12)-10-10-12-10-10-12p10----10-|-12b12.5--12pb13==(12)r(12)p10------------|
|---------------------------------12----|-------------------------------12-(12)----|
|---------------------------------------|------------------------------------------|
|---------------------------------------|------------------------------------------|


  (D5)                     B5   F5          D5
   +H      +E   Q   +E     Q.   E +Q   Q    Q.   E +E  E +E  S S
|------------------------|----------------|----------------------|
|------------------------|----------------|----------------------|
|------------------------|----------------|----------------------|
|-(12)----(12)-10--(10)\-|-4----3-(3)--3--|-0----4-(4)-------0-0-|
|------------------------|-2----3-(3)--3--|-0----------5-(5)-0-0-|
|------------------------|------3-(3)--3--|-0----------------0-0-|


  B5   F5                  D5
  Q.   E +E  S S S S S S   Q.   E +E  E +E  S S
|------------------------|-----------------------||
|------------------------|-----------------------||
|------------------------|-----------------------||
|-4----3-(3)-3---3-3-3-3-|-0----4-(4)------------||
|-2----3-(3)-3---3-3-3-3-|-0----------5-(5)-5-0--||
|------3-(3)-3-0-3-3-3-3-|-0---------------------||


 1st Verse
  N.C.(B5)    (F5)                  (D5)            D5
  PM----------------------------------|    PM|      PM---
  S S S S S S S S S S S S S S S S   S S Q  S S Q  E S S
|---------------------------------|---------------------|
|---------------------------------|---------------------|
|---------------------------------|---------------------|
|---------------------------------|---------------------|
|-2-2-2-2-2-2---------------------|-----------------0-0-|
|-------------3-3-3-3-3-3-3-3-3-3-|-0-0----0-0------0-0-|


  N.C.(B5)    (F5)                  (D5)            D5
 -------------------------------------|    PM|      PM|
  S S S S S S S S S S S S S S S S   S S Q  S S Q  E S S
|---------------------------------|-----------------------|
|---------------------------------|-----------------------|
|---------------------------------|-----------------------|
|---------------------------------|-----------------------|
|-2-2-2-2-2-2---------------------|-----------------0-0---|
|-------------3-3-3-3-3-3-3-3-3-3-|-0-0----0-0------0-0---|


  N.C(B5)(F5)     (D5)            D5    N.C(B5)(F5)
                  PM|    PM|      PM|
  Q.   E +H       S S Q  S S Q  E S S   Q.   E +Q   E   +E
|---------------|---------------------|---------------------|
|---------------|---------------------|---------------------|
|---------------|---------------------|---------------------|
|---------------|---------------------|---------------------|
|-2-------------|-----------------0-0-|-2-------------------|
|------3-(3)----|-0-0----0-0------0-0-|------3-(3)--3b4r(3)-|


  (D5)
  S E S +S  S  S  S +S  E S  S  S S S
|----------------------------------------||
|----------------------------------------||
|----------------------------------------||
|----------------------------------------||
|----------------------------------------||
|-0-0-0-(0)-0-<4>-0-(0)-0-0-<4>-0-0-0----||


   1st and 3rd Chorus
    $
    B5       F5                  D5
    E. S S S E +S  S S S S S E   E. S S S E +S  S E +S  S S S  3x
||-----------------------------|-------------------------------||
||o----------------------------|------------------------------o||
||-----------------------------|-------------------------------||
||--4--4-4-4-3-(3)-3-3---3-3-3-|-0--0-0-0-4-(4)-4-------0-0-0--||
||o-2--2-2-2-3-(3)-3-3---3-3-3-|-0--0-0-0---------5-(5)-0-0-0-o||
||-----------3-(3)-3-3-0-3-3-3-|-0--0-0-0---------------0-0-0--||


                                                 To Coda
  B5       D5F5       D5
  E. S S S E E. S S S S S   +E  S S S S E +S  S E +E  S S
|-------------------------|----------------------------------||
|-------------------------|----------------------------------||
|-------------------------|----------------------------------||
|-4--4-4-4-0-3--3-3-3-0-0-|-(0)-0-0-0-0-4-(4)-4--------------||
|-2--2-2-2-0-3--3-3-3-0-0-|-(0)-0-0-0-0---------5-(5)-5p0----||
|----------0-3--3-3-3-0-0-|-(0)-0-0-0-0----------------------||


   2nd Verse
    N.C.(B5)    (F5)                  (D5)            D5
    PM----------------------------------|    PM|      PM|
    S S S S S S S S S S S S S S S S   S S Q  S S Q  E S S
||----------------------------------|----------------------||
||o---------------------------------|---------------------o||
||----------------------------------|----------------------||
||----------------------------------|----------------------||
||o-2-2-2-2-2-2---------------------|-----------------0-0-o||
||--------------3-3-3-3-3-3-3-3-3-3-|-0-0----0-0------0-0--||


  N.C(B5)(F5)     (D5)            D5
                  PM|    PM|      PM|
  Q.   E +H       S S Q  S S Q  E S S
|---------------|---------------------|
|---------------|---------------------|
|---------------|---------------------|
|---------------|---------------------|
|-2-------------|-----------------0-0-|
|------3-(3)----|-0-0----0-0------0-0-|


  N.C(B(F5)             (D5)
  Q.   E +Q   E   +E    S E S +S  S  S  S +S  E S  S  S S S
|---------------------|-------------------------------------||
|---------------------|-------------------------------------||
|---------------------|-------------------------------------||
|---------------------|-------------------------------------||
|-2-------------------|-------------------------------------||
|------3-(3)--3b4r(3)-|-0-0-0-(0)-0-<4>-0-(0)-0-0-<4>-0-0-0-||


   2nd Chorus
    B5       F5                  D5
    E. S S S E +S  S S S S S E   E. S S S E +S  S E +S  S S S  3x
||-----------------------------|-------------------------------||
||o----------------------------|------------------------------o||
||-----------------------------|-------------------------------||
||--4--4-4-4-3-(3)-3-3---3-3-3-|-0--0-0-0-4-(4)-4-------0-0-0--||
||o-2--2-2-2-3-(3)-3-3---3-3-3-|-0--0-0-0---------5-(5)-0-0-0-o||
||-----------3-(3)-3-3-0-3-3-3-|-0--0-0-0---------------0-0-0--||


  B5       D5F5     D5
  E. S S S E E. S S S S S   +E  S S S S E +S  S E +E  S S
|-------------------------|----------------------------------||
|-------------------------|----------------------------------||
|-------------------------|----------------------------------||
|-4--4-4-4-0-3--3-3-0-0-0-|-(0)-0-0-0-0-4-(4)-4--------------||
|-2--2-2-2-0-3--3-3-0-0-0-|-(0)-0-0-0-0---------5-(5)-5p0----||
|----------0-3--3-3-0-0-0-|-(0)-0-0-0-0----------------------||


 Guitar Solo
  N.((Bb5)   (C5)   (A5)
  ~~~~~~~~~~~~~~~~~~~~~~
  W          +H     +E  S S S S S S
|----------|------------------------|
|----------|------------------------|
|----------|------------------------|
|----------|------------------------|
|-5--------|-(5)----(5)-3-3-3h5-3-3-|
|----------|------------------------|


  (D5)     (Bb5)  (C5)      (A5)
  S E. +H.        +E  S S E S S E S S E S S
|---------------|-----------------------------|
|---------------|-----------------------------|
|---------------|-----------------------------|
|---------------|---------------5-------------|
|-3-5--(5)------|-(5)-5-7-8-7-8---7-7-8-5-5---|
|---------------|-----------------------------|


  (D5)      (Bb5)        (C5)        (A5)
              ~~~~~~~~~~~~~~~
  S S E +E  a E +H       +E  S S S S S S S S S S S S S S
|----------------------|---------------------------------|
|----------------------|---------------------------------|
|----------------------|-----------------6-7-9-6-7---6---|
|----------------------|-----------5-7-8-----------8---7-|
|-5-7-3-(3)-3s5-(5)----|-(5)-5-7-8-----------------------|
|----------------------|---------------------------------|


  (D5)        (Bb5)                 (C5)   (A5)
                                    \1______/
  S S S S S S S S S S S S S S S S   H      +Q   +Q
|---------------------------------|--------------------|
|---------------------------------|--------------------|
|---------------------------------|--------------------|
|-8-5-7---5-----------------------|--------------------|
|-------8---7-8-5-7-8-5-7-8-5-7-8-|-0------(0)--(0)----|
|---------------------------------|-0------(0)--(0)----|


  (D5)        (Bb5)                 (C5)        (A5)
  S S S S S S S S S S S S S S S S   S S S S S S S S S S S S S S S S
|---------------------------------|---------------------------------|
|---------------------------------|---------------------------------|
|-----6-7---6-7-6---6-7-9-7-6-----|-----6-7---6-7-6---6-7-9-7-6-----|
|---7-------------------------8-7-|---7-------------------------8-7-|
|-5-------8-------7---------------|-5-------8-------7---------------|
|---------------------------------|---------------------------------|


  (D5)        (Bb5)                 (C5)        (A5)
  Gtr I
  S S S S S S S S S S S S S S S S   S S S S S S S S S S S S S S E
|---------------------------------|--------------------------------|
|---------------------------------|--------------------------------|
|-----6-7---6-7-6---6-7-9-7-6-----|-----6-7---6-7-6---6-7-9-7-6-0--|
|---7-------------------------8-7-|---7-------------------------0--|
|-5-------8-------7---------------|-5-------8-------7--------------|
|---------------------------------|--------------------------------|
|
| Gtr II
| S S S S S S S S S S S S S S S S   E   E   E   E   E   E   E   E
|---------------------------------|--------------------------------|
|---------------------------------|--------------------------------|
|-----6-7---6-7-6---6-7-9-7-6-----|--------------------------------|
|---7-------------------------8-7-|-----7-------7-------7----------|
|-5-------8-------7---------------|-5-------8-------7-------7---7--|
|---------------------------------|--------------------------------|


  (D5)              (Bb5)
  Gtrs I, II
   S  S  S  S  S  S  S  S  S  S  S  S  S  S  S  S
|-10-10-10-10-10-10-10-10-10-10-10-10-10-10-10-10-|
|--x--x--x--x--x--x--x--x--x--x--x--x--x--x--x--x-|
|--7--7--7--7--7--7--7--7--7--7--7--7--7--7--7--7-|
|-------------------------------------------------|
|--5----------------------------------------------|
|-------------------------------------------------|


  (C5)              (A5)
   S  S  S  S  S  S  S  S  S  S  S  S  S  S  S  S
|-10-10-10-10-10-10-10-10-10-10-10-10-10-10-10-10-|
|--x--x--x--x--x--x--x--x--x--x--x--x--x--x--x--x-|
|--7--7--7--7--7--7--7--7--7--7--7--7--7--7--7--7-|
|-------------------------------------------------|
|-------------------------------------------------|
|-------------------------------------------------|


  (D5)              (Bb5)
   S  S  S  S  S  S  S  S  S  S  S  S  S  S  S  S
|-10-10-10-10-10-10-10-10-10-10-10-10-10-10-10-10-|
|--x--x--x--x--x--x--x--x--x--x--x--x--x--x--x--x-|
|--7--7--7--7--7--7--7--7--7--7--7--7--7--7--7--7-|
|-------------------------------------------------|
|-------------------------------------------------|
|-------------------------------------------------|


  (C5)              (A5)
   S  S  S  S  S  S  S  S  S  S  S  S  S  S  S  S
|-10-10-10-10-10-10-10-10-10-10-10-10-10-10-10-10-||
|--x--x--x--x--x--x--x--x--x--x--x--x--x--x--x--x-||
|--7--7--7--7--7--7--7--7--7--7--7--7--7--7--7--7-||
|-------------------------------------------------||
|-------------------------------------------------||
|-------------------------------------------------||


   Bridge
                                                  D.S. al Coda
    D5         Bb5         D5      C5     D5  A5            D5
     E.  S S S E +S  E S S S S S    E.  S S S E +S  E S S S S S  4x
||-------------------------------|-------------------------------||
||o------------------------------|------------------------------o||
||-------------------------------|-------------------------------||
||--12--12-0-0-8-(8)-8-8-8-0-0-0-|-10--10-0-0-7-(7)-7-7-7-7-0-0--||
||o-12--12-0-0-8-(8)-8-8-8-0-0-0-|-10--10-0-0-7-(7)-7-7-7-7-0-0-o||
||--12--12-0-0-8-(8)-8-8-8-0-0-0-|-10--10-0-0-7-(7)-7-7-7-7-0-0--||


   Interlude
    &
    N.(D5)
    PM----|      PM----------------------|      PM------------|
    S S S S E. S S S S S S S S S   S S S S E. S S S S S S S S S
||-------------------------------|-------------------------------||
||o------------------------------|------------------------------o||
||-------------------------------|-------------------------------||
||-------------------------------|-------------------------------||
||o------------------------------|---------0--------------------o||
||--4-5-4-5-0--0-0-0-4-5-7-5-4-0-|-4-5-4-5-0--0-0-0-4-5-7-5-4-0--||


    N.(D5)
    S  S S  S E. S E S  S  S  S S S   S  S S  S E. S E S  S  S  S S S
||----------------------------------|-----------------------------------||
||o---------------------------------|----------------------------------o||
||----------------------------------|-----------------------------------||
||------------0--0------------------|-----------0--0--------------------||
||o-9-10-9-10-0--0---9-10-12-10-9-0-|-9-10-9-10-0--0---9-10-12-10-9-0--o||
||------------0--0-0----------------|-----------0--0-0------------------||


    F#G5F#G5D5       F#G5A5G5F#D5  F#G5F#G5D5       F#G5A5G5F#D5
    S S S S E. S +E  S S S S S S   S S S S E. S +E  S S S S S S
||-------------------------------|--------------------------------||
||o------------------------------|-------------------------------o||
||-------------------------------|--------------------------------||
||--4-5-4-5-0--0-(0)-4-5-7-5-4-0-|-4-5-4-5-0--0-(0)-4-5-7-5-4-0---||
||o-4-5-4-5-0--0-(0)-4-5-7-5-4-0-|-4-5-4-5-0--0-(0)-4-5-7-5-4-0--o||
||--4-5-4-5-0--0-(0)-4-5-7-5-4-0-|-4-5-4-5-0--0-(0)-4-5-7-5-4-0---||


   Outro
    B5       F5
    E. S S S E +S  S S S S S E
||-----------------------------|
||o----------------------------|
||-----------------------------|
||--4--4-4-4-3-(3)-3-3---3-3-3-|
||o-2--2-2-2-3-(3)-3-3---3-3-3-|
||-----------3-(3)-3-3-0-3-3-3-|


  D5                               B5       F5
  E. S S S E +S  S E +S  S S S  3x E. S S S E +H
|-------------------------------||-------------------*|
|------------------------------o||-------------------*|
|-------------------------------||-------------------*|
|----------4-(4)-4--------------||-4--4-4-4-3-(3)----*|
|-0--0-0-0---------5-(5)-0-0-0-o||-2--2-2-2-3-(3)----*|
|-0--0-0-0---------------0-0-0--||----------3-(3)----*|




--------------------------------------------------------------------------------


Duration Legend
---------------
W - whole; H - half; Q - quarter; E - 8th; S - 16th; T - 32nd; X - 64th; a - acciaccatura
+ - note tied to previous; . - note dotted; .. - note double dotted
Uncapitalized letters represent notes that are staccato (1/2 duration)
Irregular groupings are notated above the duration line
Duration letters will always appear directly above the note/fret number it represents the
duration for.  Duration letters with no fret number below them represent rests.  Multi-
bar rests are notated in the form Wxn, where n is the number of bars to rest for.  Low
melody durations appear below the staff

Tablature Legend
----------------
 h   - hammer-on
 p   - pull-off
 b   - bend
 pb  - pre-bend
 r   - bend release (if no number after the r, then release immediately)
 /\  - slide into or out of (from/to "nowhere")
 s   - legato slide
 S   - shift slide
 - natural harmonic
[n]  - artificial harmonic
n(n) - tapped harmonic
 ~   - vibrato
 tr  - trill
 T   - tap
 TP  - trem. picking
 PM  - palm muting
\n/  - tremolo bar dip; n = amount to dip
 \n  - tremolo bar down
 n/  - tremolo bar up
/n\  - tremolo bar inverted dip
 =   - hold bend; also acts as connecting device for hammers/pulls
 <> - volume swell (louder/softer)
 x   - on rhythm slash represents muted slash
 o   - on rhythm slash represents single note slash

Misc Legend
-----------
 |  - bar
||  - double bar
||o - repeat start
o|| - repeat end
*|  - double bar (ending)
 :  - bar (freetime)
 $  - Segno
 &  - Coda
Tempo markers -  = BPM(8/16=s8/s16), where s8 = swing 8ths, s16 = swing 16ths


Tap to rate this tab
# A B C D E F G H I J K L M N O P Q R S T U V W X Y Z