Song name
# A B C D E F G H I J K L M N O P Q R S T U V W X Y Z

Creed - Apples And Cider tab

Well Apples And Cider is one of the rarest songs ever, and you can take these tabs and
seeing as the majority of people have never heard this you can lie and say you made it
up.

drop z

e--3-- 4-4-4-----8------2----3-4-----5-4-3-2-1---|
b---5--3-4----6---7--5-----2----18---1-----------|
g------------------------------------------------|
d------------------------------------------------|
a------------------------------------------------|
e----0---------0---------0---------0-----------0-|

e--3-- 4-4-4-----8------2----3-4-----5-4-3-2-1---|
b---5--3-4----6---7--5-----2----18---1-----------|
g------------------------------------------------|
d------------------------------------------------|
a------------------------------------------------|
e----0---------0---------0---------0-----------0-|

e--3-- 4-4-4-----8------2----3-4-----5-4-3-2-1---|
b---5--3-4----6---7--5-----2----18---1-----------|
g------------------------------------------------|
d------------------------------------------------|
a------------------------------------------------|
e----0---------0---------0---------0-----------0-|

e--3-- 4-4-4-----8------2----3-4-----5-4-3-2-1---|
b---5--3-4----6---7--5-----2----18---1-----------|
g------------------------------------------------|
d------------------------------------------------|
a------------------------------------------------|
e----0---------0---------0---------0-----------0-|
Tap to rate this tab
# A B C D E F G H I J K L M N O P Q R S T U V W X Y Z