Song name
# A B C D E F G H I J K L M N O P Q R S T U V W X Y Z

Creed - Alone Acustic tab

Help us improve GuitareTab! Take a short survey!
Creed ft. Tool
Alone (Acustic)
===============

Here is the tab of the song, it's hard to write the correct rythm
so next time I'm gonna bring it on GuitarPro. You only may be careful
with the first string 'cause this is who do the song sounds like it is. You can write me 
scaryandys@gmail.com.

VERSES AND CHORUS
==================
Repeat trough whole song.


        Em             Em        Am         C

E||-------3-0-3---3-3-3-3-0-0--0-0-0-0---0-0-0-0---|
B||-------0-0-0---0-0-0-0-0-0--0-0-0-0---1-1-1-1---|
G||-0--0--0-0-0---0-0-0-0-0-0--2-2-2-2---0-0-0-0---|
D||-2--2--2-2-2---2-2-2-2-2-2--2-2-2-2---2-2-2-2---|
A||-2--2--2-2-2---2-2-2-2-2-2--0-0-0-0---3-3-3-3---|
E||-0--0--0-0-0---0-0-0-0-0-2--x-x-x-x---x-x-x-x---|

        Em             Em        Am         C

E||-------3-0-3---3-3-3-3-0-0--0-0-3-0---3-3-3-3---|
B||-------0-0-0---0-0-0-0-0-0--0-0-0-0---1-1-1-1---|
G||-0--0--0-0-0---0-0-0-0-0-0--2-2-2-2---0-0-0-0---|
D||-2--2--2-2-2---2-2-2-2-2-2--2-2-2-2---2-2-2-2---|
A||-2--2--2-2-2---2-2-2-2-2-2--0-0-0-0---3-3-3-3---|
E||-0--0--0-0-0---0-0-0-0-0-2--x-x-x-x---x-x-x-x---|


SOLO
=====
You can also use the Em scale to get your own solo.

     Em      Am    C         Em              Am     C
     ^
E||------------------------------------------------------|
B||------------------------------------------------------|
G||------------------------------5-7/9-7~--7b-5----------|
D||--7-----7b-7--7b-5---5-----------------------7b-7-5---|
A||-----------------------7-5-7--------------------------|
E||------------------------------------------------------|


     Em            Am         C         Em         Am        C
E||---------------------------------------------------------------|
B||---------------------------------------------------------------|
G||---------------------------------------------------------------|
D||---5-7-7b-7-5~--7-5--------------------------------------------|
A||-7------------------7-7b-7-5---5h7p5---------------------------|
E||-------------------------------------7-5\3-3--3\2-2--2-2/3-3---|


Chords
=======
Em 022000
Am x02200
C  x32010


Tab Legends
============
^ - full (bend and sustain whole tone)
b - bend
~ - Vibrato
/ - slide up
\ - slide down
h - hammer on
p - pull off

I write this tab for Lelitos 'cause we both like this song and I want her
to learn it and play it for me... I HATE YOU SO MUCH!
Related for Alone Acustic tab