Guitaretab - guitar tabs
Song name
# A B C D E F G H I J K L M N O P Q R S T U V W X Y Z

Creedence Clearwater Revival - Around The Bend tab

CCR
Around the Bend Solo and Main riff

Tuning: Standard
Transcribed: Matt Schultz

Main Riff:
|-------10---------10\--|
|-----------10----------|
|---/11---------11------| x2
|-0---------------------|
|-----------------------| 
|-----------------------|

|--------5-------5\--|
|-----------5--------|
|----/6--------6-----|
|--------------------|
|-0------------------|
|-------------------

|-------10---------10\--|
|-----------10----------|
|---/11---------11------| 
|-0---------------------|
|-----------------------| 
|-----------------------|


Guitar solo
            
|-----------)-----------------------|
|-------3-5---5p3--------)-5--------|
|-0--/4------------4-2--4-----4^-2--|
|-----------------------------------|
|-----------------------------------|
[ Tab from: http://www.guitaretab.com/c/creedence-clearwater-revival/148654.html ]
|----------)----------------------------------|
|-------3-5---5p3--------)-5---------)-)------|
|-0--/4------------4-2--4-----4^--2-4-4-4^-2--|
|---------------------------------------------|
|---------------------------------------------|
|---------------------------------------------|


Outro Riff:
|-----5-----5-----5--------5-----5------|
|-6h7---6h7---6h7---7--6h7---6h7---7----|
|------------------------------------7--|
|---------------------------------------|
|---------------------------------------|
|---------------------------------------|





Tab Legend
----------------------------------------------------------------------------

) = bend 

^ = bend up then return

/ = slide up

\ = slide down

P = pull-off

H = hammer on
----------------------------------------------------------------------------





Related for Around The Bend tab
Advertisement will be closed in 10 seconds