Guitaretab - guitar tabs
Song name
# A B C D E F G H I J K L M N O P Q R S T U V W X Y Z

Creedence Clearwater Revival - Fortunate Son tab

-------------------------------------------------------------------------------
			     FORTUNATE SON - Creedence Clearwater Revival
				Intro
-------------------------------------------------------------------------------
Tabbed by: Jakollee
Email: guitarjak@hotmail.com

Tuning: D-G-C-F-A-d (like standard, but a whole-step down)

To play this song, John Fogerty tunes his guitar down a whole step (in standard tuning) 
so he can play as if it's in the key of A, but sing it in the key of G.
[ Tab from: http://www.guitaretab.com/c/creedence-clearwater-revival/185147.html ]
e|--------5~--------3~----------------0--------------------------------------|
B|---------------------------7~----------------------------------------------|
G|----5/6-------3/4----------------------------------------------------------|  Play
D|-----------------------5h7-----5h7-----------------------------------------|  twice
A|----------------------------------------3p0--------------------------------|
E|---------------------------------------------------------------------------|

Instrumental Interlude (drone on open A string in between higher notes):

e|---------------------------------------------------------------------------|
B|---8-----7----7\3--------3/5---------8-------7-------7\3-------3/5---------|
G|---9-----8----8\4--------4/6---------9-------8-------8\4-------4/6---------|
D|---------------------------------------------------------------------------|
A|-----0-0---0-0----0-0-0------0-0-0-----0-0-0---0-0-0-----0-0-0-------------|
E|---------------------------------------------------------------------------|
Related for Fortunate Son tab
Fortunate Son chords by Creedence Clearwater Revival