Song name
# A B C D E F G H I J K L M N O P Q R S T U V W X Y Z

Creedence Clearwater Revival - Midnight Special tab

Hello. This is my first tab so i hope it's ok.

Tabbed By: Gavin Pritchard
Tuning: Drop D (D,A,D,G,B,E)

E---------------------------------------------------------------------------|
B------------3-----------------------3--------------------------------------|
G---------2------------------------4----------------------------------------|
D------0-------------------------5------------------------------------------|
A----0-------------------------5--------------------------------------------|
D--0-------------------------5----------------------------------------------|


E---------------------------------------------------------------------------|
B------------3-----------------------5--------------------------------------|
G---------2------------------------6----------------------------------------|
D------0-------------------------7------------------------------------------|
A----0-------------------------7--------------------------------------------|
D--0-------------------------7----------------------------------5\0---------|


E---------------------------------------------------------------------------|
B------------3-----------------------3--------------------------------------|
G---------2------------------------4----------------------------------------|
D------0-------------------------5------------------------------------------|
A----0-------------------------5--------------------------------------------|
D--0-------------------------5----------------------------------------------|


E---------------------------------------------------------------------------|
B------------3-----------------------5--------------------------------------|
G---------2------------------------6----------------------------------------|
D------0-------------------------7------------------------------------------|
A----0-------------------------7--------------------------------------------|
D--0-------------------------7----------------------------------------------|


E--------------------|
B--------------------|
G--------------------|
D--------------------|
A--------------------|
D--3b-3b--3b---0-----|

Verse


E--------------------------------------------------------------------------|
B--------------------------------------------------------------------------|
G--------------------------------------------------------------------------|
D--------------------------------------------------------------------------|
A--0h5-5-x-0h5-5-x-0h5-5-x-0h5-5-x-0-0-0-x-0-0-0-x-0-0-0-x-0-0-0-x---------|
D--0h5-5-x-0h5-5-x-0h5-5-x-0h5-5-x-0-0-0-x-0-0-0-x-0-0-0-x-0-0-0-x---------|


E---------------------------------------------------------------------------|
B---------------------------------------------------------------------------|
G---------------------------------------------------------------------------|
D---------------------------------------------------------------------------|
A--5h7-7-x-5h7-7-x-5h7-7-x-5h7-7-x-0-0-0-x-0-0-0-x-0-0-0-x-0-0-0-x----------|
D--5h7-7-x-5h7-7-x-5h7-7-x-5h7-7-x-0-0-0-x-0-0-0-x-0-0-0-x-0-0-0-x----------|


When the drums come in i dont think they use the hammer ons. i think they just play it 
a shown below


E---------------------------------------------------------------------------|
B---------------------------------------------------------------------------|
G---------------------------------------------------------------------------|
D---------------------------------------------------------------------------|
A--0-5-5-x-0-5-5-x-0-5-5-x-0-5-5-x-0-0-0-x-0-0-0-x-0-0-0-x-0-0-0-x----------|
D--0-5-5-x-0-5-5-x-0-5-5-x-0-5-5-x-0-0-0-x-0-0-0-x-0-0-0-x-0-0-0-x----------|


E---------------------------------------------------------------------------|
B---------------------------------------------------------------------------|
G---------------------------------------------------------------------------|
D---------------------------------------------------------------------------|
A--5-7-7-x-5-7-7-x-5-7-7-x-5-7-7-x-0-0-0-x-0-0-0-x-0-0-0-x-0-0-0-x----------|
D--5-7-7-x-5-7-7-x-5-7-7-x-5-7-7-x-0-0-0-x-0-0-0-x-0-0-0-x-0-0-0-x----------|
Tap to rate this tab
# A B C D E F G H I J K L M N O P Q R S T U V W X Y Z