Song name
# A B C D E F G H I J K L M N O P Q R S T U V W X Y Z

Creedence Clearwater Revival - Effigy tab

     Effigy - Creedence Clearwater Revival
-----------------------------------------------
Tabbed by:  J Johnson
Email:  magicjohnsons@hotmail.com


Tuning: standard


This is the intro part for guitar. 
(The bass doubles the guitar's "bassline" after the first measure).

It's a beautiful and simple sounding intro, but not so simple to play smoothly. 
It is also an important setup to the rest of what is my favorite CCR song to play on an acoustic. 


4/4


  1   +   2   +   3   +   4   +
e|1---0---3---5---3---5---3---5---|
B|--3---3---3---3---3---3---3---3-|
G|--------------------------------|
D|0-------------------------------|  x3
A|----4---1-----------------------|
E|----------------3-------0-------|


  1   +   2   +   3   +   4   +
e|3---5---3---5---3---5---3-------|
B|--2---2---2---2---2---2---------|
G|--------------------------------|
D|--------------------------------|
A|0-------------------------------|
E|--------------------------------|
Tap to rate this tab
# A B C D E F G H I J K L M N O P Q R S T U V W X Y Z