Creedence Clearwater Revival - Jambalaya tab

/--------------------------------------------------------------------------/
/--------------------------------------------------------------------------/
/------------------------------------------2-------------------------------/
/--5-5-2-----2------------------0-2---0-4----4--2--0-----------------------/
/---------5-----5--2--------0-2--------------------------------------------/
/------------------------3-------------------------------------------------/


/--------------------------------------------------------------------------/
/--------------------------------------------------------------------------/
/----2---------------------------------------0-----------------------------/
/--4----4-2--4-2----2-0-----0------------0-2-------------------------------/
/-----------------5------2----2-0----0-2-----------------------------------/
/----------------------------------3---------------------------------------/
Tap to rate this tab
 
# A B C D E F G H I J K L M N O P Q R S T U V W X Y Z