Song name
# A B C D E F G H I J K L M N O P Q R S T U V W X Y Z

Creedence Clearwater Revival - Hey Tonight tab

Hey Tonight
By Creedence

Intro: Let Ring for both guitars
guitar 1               X3
e|12--7-----0-0---0-0-----|---0---0---0---0---0---0---0---0--|
b|0---0--12---4s5---2-----|-0-0---0---0---0-0-0---0---0---0--|
g|------------------------|-1---x---x---x---1---x---x---x----|
d|------------------------|-----4---2---4-------4---2---4----|
a|------------------------|----------------------------------|
e|------------------------|----------------------------------|
   USE ALTERNATIVE PICKING OR USE DOWN UP DOWN UP DOWN UP DOWN UP
 guitar 2               
e|------------------------|----------------------------------|
b|------------------------|-0---0---0---0---0---0---0---0----|
g|------------------------|-1---x---1---x---1---x---1---x----|
d|------------------------|-----4---2---4-------4---2---4----|
a|------------------------|----------------------------------|
e|------------------------|----------------------------------|

Verse 1
lead guitar patterns for verses
   E           A
e|---0---0---0--------------|       DOWN AND UP
b|---0---0---0---2---2---2--|       STROKES
g|---1---1---1---2---2---2--|   
d|-------------2-2-2-2-2-2--|   MUTE DOWN STROKES
a|-2-----------0---0---0----|   UP STROKES ARE OFF BEATS
e|-0---0---0----------------|
   \ / \ / \ / \ / \ / \ /

RHYTHM GUITAR STRUMS CHORDS


E                                                          A        E
Hey Tonight, Gonna be tonight, Don't you know I'm flyin' Tonight, tonight. 
E                                  A       E
Hey c'mon, Gonna chase tomorrow, Tonight, tonight.

CHORUS
GUITAR 1
  B           F#           B          B       X2
e|-----------------------------------------------------|
b|-----------------------------------------------------|
g|-----------------------------------------------------|
d|-4-4-6-4-4-6-------------4-4-6-4-4-6-4-4-4-4-4-4-4-4-|
a|-2-2-2-2-2-2-4-4-6-4-4-6-2-2-2-2-2-2-2-2-2-2-2-2-2-2-|
e|-------------2-2-2-2-2-2-----------------------------|
                                      |HERE HIT HARD HAS YOU CAN
GUITAR 2 STRUMS CHORDS

VERSE 2
E                                  A        E
Hey c'mon, Gonna hear the songs, Tonight, tonight.

BRIDGE
BOTH GUITARS                   X2
e|0-0-0--0-0-0-0-0-0-0---0---0---0-|
b|9---10---9---5---0---0---0---0---|
g|---------------------2---1---1---|
d|-----------------------------2---|
a|---------------------------------|
e|---------------------------------|
CHORD FOR THIS PART IS E5

NEXT BIT
 PIANO PART
  A                       E                     X2
e|------------------------0--0--0--0--0--0--0--0--|       
b|2--2--2--2--2--2--2--2--0--0--0--0--0--0--0--0--|       
g|2--2--2--2--2--2--2--2--1--1--1--1--1--1--1--1--|   
d|2--2--2--2--2--2--2--2--2--2--2--2--2--2--2--2--|   
a|------------------------------------------------|   
e|------------------------------------------------|
 UP STROKE IT ON OFF BEATS
GUITARS STRUM CHORDS  

THEN YOU PLAY THE CHORUS, PLAY AN EXTRA BAR AT THE END (PLAY B)

3RD VERSE
E                                                           A        E      
Hey, Tonight, Gonna be tonight, Don't you know I'm flyin' Tonight, tonight.
  A      
Tonight, 

OUTRO:
 E TILL FADE OUT, GUITARS PLAY 2ND BIT OF THE INTRO
tonight. 

THATS ALL FOLK'S
ANY COMMENTS, REFER THEM ON MY PROFILE PAGE
Tap to rate this tab
 
# A B C D E F G H I J K L M N O P Q R S T U V W X Y Z