Song name
# A B C D E F G H I J K L M N O P Q R S T U V W X Y Z

Creedence Clearwater Revival - Walk On The Water tab

                          Walk On The Water

                                 By

                     Creedence Clearwater Revival

Tabbed by Stephen Earnest (aka Steveman)

I couldn't find a decent tab on the website so I thought I'd give it a go. It's a fairly 
underrated song. Enjoy!


Intro

|-------------------|
|-------------------|
|-------------------|
|-------------------|
|-------3-2-0-------|
|-3-2-0-------3-2---|

Verse ("Late last night...")

Guitar 1

|------------------|
|------------------|
|------------------|
|------------------|
|-7-7-7-7-7-7-7-7--|
|--------0-------0-| x9

Guitar 2

|------------------|
|-8-8-8-8-8-8-8-8--|
|-9-9-9-9-9-9-9-9--|
|-9-9-9-9-9-9-9-9--|
|-7-7-7-7-7-7-7-7--|
|------------------|

|----------------------------------|
|-8-8-8-8-7-7-7-7-5-5-5-5-8-8-8-8--|
|-9-9-9-9-7-7-7-7-5-5-5-5-9-9-9-9--|
|-9-9-9-9-7-7-7-7-5-5-5-5-9-9-9-9--|
|-7-7-7-7-5-5-5-5-3-3-3-3-7-7-7-7--|
|----------------------------------|

|---------7-7-7-7------------------|
|-8-8-8-8-8-8-8-8------------------|
|-9-9-9-9-7-7-7-7-6-6-6-6-5-5-5-5--|
|-9-9-9-9-9-9-9-9-7-7-7-7-7-7-7-7--|
|-7-7-7-7-7-7-7-7-7-7-7-7-7-7-7-7--|
|-----------------5-5-5-5-5-5-5-5--|

|----------------------------------|
|-8-8-8-8-7-7-7-7-5-5-5-5-8-8-8-8--|
|-9-9-9-9-7-7-7-7-5-5-5-5-9-9-9-9--|
|-9-9-9-9-7-7-7-7-5-5-5-5-9-9-9-9--|
|-7-7-7-7-5-5-5-5-3-3-3-3-7-7-7-7--|
|----------------------------------|

|----------------------------------|
|-5-5-5-5-8-8-8-8------------------|
|-5-5-5-5-9-9-9-9-6-6-6-6-5-5-5-5--|
|-5-5-5-5-9-9-9-9-7-7-7-7-7-7-7-7--|
|-3-3-3-3-7-7-7-7-7-7-7-7-7-7-7-7--|
|-----------------5-5-5-5-5-5-5-5--|

Chorus ("I saw a man...")

Guitar 1

|-----------------------------------|
|-----------------------------------|
|-----------------------------------|
|-----------------------------------|
|-5-5-5-5-5-5-5-5-7-7-7-7-7-7-7-7---|
|--------0-------0-------0-------0--| x2

|-----------------------------------|
|-----------------------------------|
|-----------------------------------|
|-----------------------------------|
|-5-5-3-3-2-2-0-0-3-3-2-2-0-0-3-3---|
|--------------------------------0--|

|-----------------------------------|
|-----------------------------------|
|-----------------------------------|
|-----------------------------------|
|-----------------------------------|
|-3-3-3-3-3-3-3-2-0-0-0-0-0-0-0-0---|

|-------------------------------------------------------|
|-------------------------------------------------------|
|-------------------------------------------------------|
|-7~----0-7~-------------------7~----0-7~---------------|
|-5~----0-5~----2~----0-2~-----5~----0-5~-----2~----2~--|
|---------------0~----0-0~--------------------0~----0~--|

Guitar 2

|-2---0---2---0---2---0---3---0---2---0---2---0--|
|-3---0---3---0---3---1---3---0---3---0---3---0--|
|-2---0---2---0---2---0---0---0---2---0---2---0--|
|-0---2---0---2---0---2---0---2---0---2---0---2--|
|-----2-------2-------3---2---2-------2-------2--|
|-----0-------0-----------3---0-------0-------0--|

Bridge 1

Guitar 1

|-------------------|
|-------------------|
|-------------------|
|-------------------|
|-2~----------------|
|-0~----------------|

Guitar 2

|----77777----|
|-8--88888-8--|
|-9--99999-9--|
|-9--99999-9--|
|-7--77777-7--|
|-------------| x4

Bridge 2

Guitar 1

|--------------------------------------------------------------|
|--------------------------------------------------------------|
|--------------------------------------------------------------|
|--------------------------------------------------------------|
|--------------------------------------------------------------|
|-0-0-0-0-2-2-2-2-3-3-3-3-5-5-5-5-7-7-7-7-8-8-8-8-10-10-10-10--|

|--------------------------------------------------------------|
|--------------------------------------------------------------|
|--------------------------------------------------------------|
|--------------------------------------------------------------|
|--------------------------------------------------------------|
|-12-12-12-12-14-14-14-14-14-14-14-14-14-14-14-14-14-14-14-14--|

|--------------------------------------------------------------|
|--------------------------------------------------------------|
|--------------------------------------------------------------|
|--------------------------------------------------------------|
|--------------------------------------------------------------|
|-15-15-15-15-15-15-15-15-15-15-15-15-15-15-15-15-15-15-15-15--|

**When playing the 14 and 15 on the E string, they are tremolo picked with sometimes a 
hammer-on from 12.

Guitar 2

|-0---2---3---0---0---0---2---0---2---2(?)--|
|-0---3---3---2---0---1---3---0---2---2(?)--|
|-0---2---0---2---0---0---2---0---3---3(?)--|
|-2---0---0---2---2---2---0---2---2---2(?)--|
|-2-------2---0---2---3-------2---4---4(?)--|
|-0-------3-------0-----------0---2---3(?)--|

Bridge 3

Guitar 2

|-7--7--7--7--7--7--7--7--|
|-8--7--8--7--8--7--8--7--|
|-9--7--9--7--9--7--9--7--|
|-9--7--9--7--9--7--9--7--|
|-7--5--7--5--7--5--7--5--|
|-------------------------|

Bridge 4

Guitar 1

|----------------|
|-8-8-8-8-8-8-8--|
|-9-9-9-9-9-9-9--|
|-9-9-9-9-9-9-9--|
|-7-7-7-7-7-7-7--|
|----------------|

Guitar 2

|----------------------------------------------------------|
|----------------------------------------------------------|
|----------------------------------------------------------|
|----------------------------------------------------------|
|---------3-2-0-------------------3-2-0-------3-2-0--------|
|-0-3-2-0-------3-2-0-------3-2-0-------3-2-0-------3-2-0--|

And from there on out, it's pretty easy to figure out. Mostly just solos and randomness.

E-mail: steveman1236@gmail.com
Tap to rate this tab
# A B C D E F G H I J K L M N O P Q R S T U V W X Y Z