Song name
# A B C D E F G H I J K L M N O P Q R S T U V W X Y Z

Creedence Clearwater Revival - Have You Ever Seen The Rain tab

----------------------------------------------------------------------------
           Have You Ever Seen the Rain - Creedence Clearwater Revival
----------------------------------------------------------------------------
This is an easy  song+melody tab for this song i got it from this video: 
http://www.youtube.com/watch?v=2APlbZr2U9w if you find and mistake 
email me nicodare@gmail.com

D: Down Strum
U: Up Strum



Verse:
    D                        D  U  D                          D  D  U  U  D
e|--0-------------0-------|--0--0--0------------0-------|--3--3--3--3--3--3--|
B|--1--------1------1--1--|--1--1--1--------1------1--1-|-----0--0--0--0--0--|
G|--0--0--2-----2---------|--0--0--0--0--2-----2--------|-----0--0--0--0--0--|
D|--2---------------------|--2--2--2--------------------|-----0--0--0--0--0--|
A|--3---------------------|--3--3--3--------------------|-----0--0--0--0--0--|
E|--0---------------------|--0--0--0--------------------|-----3--3--3--3--3--|
                        D  D  U  U  D
e|--3--3--3--1--1--0-|--0--0--0--0--0--|
B|-------------------|--1--1--1--1--1--|
G|-------------------|--0--0--0--0--0--|
D|-------------------|--2--2--2--2--2--|       X2
A|-------------------|--3--3--3--3--3--| 
E|-------------------|--0--0--0--0--0--|

Chorus:
    D        D  D  U  U  D                               D  D  U  U  D    
e|--0--5--3--3--3--3--3--3--|--0--1-------3-- -|---------0--0--0--0--0------|
B|--1--------3--3--3--3--3--|-------------0----|---------1--1--1--1--1------|
G|--2--------0--0--0--0--0--|-----------0------|------0--2--2--2--2--2------|  X2
D|--3--------0--0--0--0--0--|---------2--------|----3----2--2--2--2--2------|
A|--0--------0--0--0--0--0--|-------3----------|--2------0--0--0--0--0------|
E|-----------3--3--3--3--3--|------------------|----------------------------|
    D  D  U        D  D  U              D  D  U  U  D
e|--0--0--0--------3--3--3--|--0--0-----0--0--0--0--0--|
B|--1--1--1-----1--0--0--0--|--------1--1--1--1--1--1--|
G|--2--2--2--2-----0--0--0--|-----------0--0--0--0--0--|
D|--3--3--3--------0--0--0--|-----------2--2--2--2--2--|    
A|--0--0--0--------0--0--0--|-----------3--3--3--3--3--| 
E|-----------------3--3--3--|-----------0--0--0--0--0--|
Tap to rate this tab
 
# A B C D E F G H I J K L M N O P Q R S T U V W X Y Z