Song name
# A B C D E F G H I J K L M N O P Q R S T U V W X Y Z

Creedence Clearwater Revival - Up Around The Bend chords

Highlighted       Show chord diagrams
Creedence Clearwater Revival - Up Around The Bend

intro
    D
E------------10----------------------------10----------------|
B------------------10-----10---------------------10------10--|
G-------/11------------11-------------/11------------11------|
D---0-----------------------------0--------------------------|
A------------------------------------------------------------|
E------------------------------------------------------------|

    A                              D
E------------5-----------------------------10----------------|
B------------------5-----5-----------------------10-----10---|
G-------/6------------6---------------/11------------11------|
D----------------------------------0-------------------------|
A---0--------------------------------------------------------|
E------------------------------------------------------------|x2

Verse 1
D                                       A                               D
There's a place up ahead and I'm goin' just as fast as my feet can fly.
                                        A                          D
Come away, come away if you're goin', leave the sinkin' ship behind.

G             D      A        G          D         A
C'mon the risin' wind, we're goin' up around the bend. Whoooh.

Verse 2
D                                       A                              D
Bring a song and a smile for the banjo, better get while the gettin's good.
                                       A                         D
Hitch a ride to the end of the highway where the neons turn to wood.

G             D      A        G          D         A
C'mon the risin' wind, we're goin' up around the bend. Whoooh.

Verse 3
D                                 A                           D
You can ponder perpetual motion, fix your mind for a crystal day.
                                      A                           D
Always time for a good conversation, there's an ear for what you say.

G             D      A        G          D         A
C'mon the risin' wind, we're goin' up around the bend. Yeahhhh


Solo  D   |    |A   |D  ||x2  (same as intro)


   G               D                    A
e|---------------------------------|--------------------------------------|
B|-------------3---5b7----5p3------|-------------------5------------------|
G|-0------2/4-----------------4----|----2------4-b-6--(6)--pb6-r-4---2----|
D|---------------------------------|--------------------------------------|
A|---------------------------------|--------------------------------------|
E|---------------------------------|--------------------------------------|
   G               D                    A
e|---------------------------------|--------------------------------------|
B|-------------3---5b7----5p3------|-------------------5------------------|
G|-0------2/4-----------------4----|----2------4-b-6--(6)--pb6-r-4---2----|
D|---------------------------------|--------------------------------------|
A|---------------------------------|--------------------------------------|
E|---------------------------------|--------------------------------------|

e|---------------------------------|
B|---------------------------------|
G|----4b6----4b6----4b6r4---2------|
D|---------------------------------|
A|---------------------------------|
E|---------------------------------|

    
Verse 4
D                                       A                             D
Catch a ride to the end of the highway and we'll meet by the big red tree.
                                        A                            D
There's a place up ahead and I'm goin', come along, come along with me.

G             D      A        G          D         A
C'mon the risin' wind, we're goin' up around the bend. Whoooh.


[For best results, copy and paste from 'ARTIST - TITLE' into your favorite text 
software, adjust the closest section to the page break, and BOLD each section 
heading as well as the chords. Print]
Tap to rate this tab
# A B C D E F G H I J K L M N O P Q R S T U V W X Y Z