Song name
# A B C D E F G H I J K L M N O P Q R S T U V W X Y Z

Creedence Clearwater Revival - Good Golly Miss Molly tab

Full song WITH SOLO!!

Main Riff:
|--------------------------------------------------------|
|--------------------------------------------------------|
|--------------------------------------------------------|
|--------1-1----------1-1----------1-1----------1-1------|
|------3-----3------3-----3------3-----3------3-----3----|
|--1-1----------1-1----------1-1----------1-1------------|

|--------------------------------------------------------|
|--------------------------------------------------------|
|--------1-1----------1-1--------------------------------|
|------3-----3------3-----3--------1-1----------1-1------|
|--1-1----------1-1--------------3-----3------3-----1----|
|----------------------------1-1----------1-1------------|

|--------------------------------------------------------|
|--------------------------------------------------------|
|--------3-3----------1-1--------------------------------|
|------5-----5------3-----3--------1-1-------------------|
|--3-3----------1-1--------------3-----3-----------------|
|----------------------------1-1---------1---------------|

 Fill #1		    Fill #2
|-------------------------|------------------------------|
|-------------------------|------------------------------|
|-------------------------|--10--13--15--17--15--13--10--|
|-------------------------|------------------------------|
|--------1--3--1----------|------------------------------|
|--1--4-----------4--1----|------------------------------|

 Lick #1	      Lick #2
|--------------------|--------------------------|
|--15----------------|--16--18------------------|
|--14b16---13----13--|----------15p13----13-----|
|-------------15-----|----------------15----15--|
|--------------------|--------------------------|
|--------------------|--------------------------|

solo1:                  
|--------5---7/12------12-----12----12------12|
|5---8------------10h12--10h12--10h12--10h12--|
|---------------------------------------------|
|---------------------------------------------|
|---------------------------------------------|
|---------------------------------------------|

|------12-----12--12/17-|
|-10h12--10h12----------|
|-----------------------|
|-----------------------|
|-----------------------|
|-----------------------|

|--15h17-15h17-15h17-15h17-15h17-15h17--|
|---------------------------------------|
|---------------------------------------|
|---------------------------------------|
|---------------------------------------|
|---------------------------------------|

|-15------------------------------------------|
|-15-17-17--15--------------------------------|
|---------------1614---------14---15h16-1616--|
|-------------------171817--------------------|
|---------------------------------------------|
|---------------------------------------------|

|---------------------------------------------|
|-------------------------12------------------|
|14h15-1515--13h14-1414------14-12----12-14-12|
|----------------------------------14---------|
|---------------------------------------------|
|---------------------------------------------|

|---------------------------------------------|
|---------------------------------------------|
|--------12----12-14/16---14---12-14-12-------|
|-141214----14--------------------------14----|
|---------------------------------------------|
|---------------------------------------------|

|---------------15br-----------------15br-----|
|17-15-15h17-17-----17-17-15-17-15h17---------|
|---------------------------------------------|
|---------------------------------------------|
|---------------------------------------------|
|---------------------------------------------|

|-12-10-12-------12-----12--12---12-----------|
|-----------10h12-----12--12---12-------------|
|---------------------------------------------|
|---------------------------------------------|
|---------------------------------------------|
|---------------------------------------------|


Solo2:
|---------5---7/12-10b--12------12------12-|
|-5---8--------------------10h12---10h12---|
|------------------------------------------|
|------------------------------------------|
|------------------------------------------|
|------------------------------------------|

|-----12------12------12/17-17-------------|
|10h12---10h12---10h12--------17-15h17-17--|
|------------------------------------------|
|------------------------------------------|
|------------------------------------------|
|------------------------------------------|

|--15/19-15171519--15171519--15171519--|
|--------------------------------------|
|--------------------------------------|
|--------------------------------------|
|--------------------------------------|
|--------------------------------------|

|-151715171517/19--1715----15171517-19-|
|---------------------17---------------|
|--------------------------------------|
|--------------------------------------|
|--------------------------------------|
|--------------------------------------|

|-1715----15-------15--------15--------|
|-----17-----1715-----1715------1715---|
|---------------16--------16--------16-|
|--------------------------------------|
|--------------------------------------|
|--------------------------------------|

|-15--------15-------15----------------|
|----1715-----1715-15----12p10-----10--|
|--------16------16-------------1212---|
|--------------------------------------|
|--------------------------------------|
|--------------------------------------|

|-----12-12/17-1715--------------------|
|-10b---------------17-15--------------|
|-------------------------14-14h16-1616|
|--------------------------------------|
|--------------------------------------|
|--------------------------------------|

|--------------------|
|--------------------|
|16h14---------------|
|-----1714-17-----14-|
|--------------------|
|--------------------|

Intro = Main Riff x1

Good golly miss molly (lick #1)
Sure like a ball (lick #2)
Good golly miss molly (lick #1)
Sure like to ball (lick #2)
When you're rockin' and a-rollin' (lick #1)
Can't hear your mama call (fill #1)

Verse:
>From the early early morning
To the early early night
You can see miss molly rockin'
At the house of blue light

Chorus:
Good golly miss molly (lick #1)
Sure like to ball (lick #2)
When you're rockin' and a-rollin' (lick #1)
Can't hear your mama call (fill #1)

Verse:
Her mom and poppa told me
"Son, you better watch your step"
If I knew my mom and pop
I'll have to watch my poppa's step

Chorus:
Good golly miss molly (lick #1)
Sure like to ball (lick #2)
When you're rockin' and a-rollin' (lick #1)
Can't hear your mama call (fill #1 into solo)

Verse:
I'm goin' to the corner
Gonna buy a diamond ring
Would you pardon me again son
And a dang-a-lang-a-ling

Chorus:
Good golly miss molly (lick #1)
Sure like to ball (lick #2)
When you're rockin' and a-rollin' (lick #1)
Can't hear your mama call (fill #1 into solo)

Chorus:
Good golly miss molly (lick #1)
Sure like to ball (lick #2)
When you're rockin' and a-rollin' (lick #1)
Can't hear your mama call (fill #1, a bit faster)
Tap to rate this tab
# A B C D E F G H I J K L M N O P Q R S T U V W X Y Z