Guitaretab - guitar tabs
Song name
# A B C D E F G H I J K L M N O P Q R S T U V W X Y Z

Creedence Clearwater Revival - Long As I Can See The Light tab

Band: Creedence Clearwater Revival
Song: Long as I Can See the Light

Tabbed by: Matt

This is the saxophone solo in the song transcribed for guitar. I did it pretty quickly 
I'm not sure if its 100% accurate but sounds real close.

Legend:

b - bend to indicated note (ie 7b9)
r - release bend to note indicated (ie 9r7)
v - vibrato
h - hammer on
p - pull off
/ - slide from first indicated note to last note (i.e 4/6)

e|---------------------------------------------------------------------------|
B|---------------------------------------------------------------------------|
G|-----9b11--11r9--8-8-8-8-8-8-8vvvvv--8p6p4vvvvv---4h6p4vvvvv---------------|
D|------------------------------------------------4--------------------------|
A|---------------------------------------------------------------------------|
E|---------------------------------------------------------------------------|
[ Tab from: http://www.guitaretab.com/c/creedence-clearwater-revival/4352.html ]
e|----------------------------7----------------------------------------------|
B|-----7--9--10b12--12r10--9----7b9r7----------------------------------------|
G|----------------------------------------8p6vvvvv---------------------------|
D|---------------------------------------------------------------------------|
A|---------------------------------------------------------------------------|
E|---------------------------------------------------------------------------|

e|---------------------------------------------------------------------------|
B|-----------12b14--14r12--12--12-10-9---------------------------------------|
G|-----11--11--------------------------11--9p7-------------------------------|
D|---------------------------------------------------------------------------|
A|---------------------------------------------------------------------------|
E|---------------------------------------------------------------------------|

e|---------------------------------------------------------------------------|
B|-------------7--7h9p7------------------------------------------------------|
G|-----4---6/8-----------8--8--8--8--8--8--8vvvvv--8p6p4vvvvv-----4h6p4vvvv--|
D|-------------------------------------------------------------4-------------|
A|---------------------------------------------------------------------------|
E|---------------------------------------------------------------------------|
Related for Long As I Can See The Light tab
Long As I Can See The Light chords by Creedence Clearwater Revival