Song name
# A B C D E F G H I J K L M N O P Q R S T U V W X Y Z

Creedence Clearwater Revival - Proud Mary tab

Well, this is the tabs for the vocals.. me and my friend fixed this, and we are proud :) ENJOY!!

|-----------------------------------------------|
|---------------2-2--2-2-2-2-0---0-2-2--2-2-2-2-|
|---2-2-2--2-2----------------2-2---------------|
|-4---------------------------------------------|
|-----------------------------------------------|
|-----------------------------------------------|

|-----------------------------------------------|
|-0---2-2-2-2-0--2-2-2-2-0-0-2-2---0-0-0-0-0-2--|
|---2----------2----------2---------------------|
|-----------------------------------------------|
|-----------------------------------------------|
|-----------------------------------------------|

|-----------------------------------------------|
|-2-0---0---------2-2--2-2--2-2-0---0-----------|
|-----2---2-2---------------------2---2---------|
|-------------4---------------------------------|
|-----------------------------------------------|
|-----------------------------------------------|

|-----------------------------------------------|
|2-2--2-2--2-2-0---0----------------------------|
|----------------2---2--------------------------|
|-----------------------------------------------|
|-----------------------------------------------|
|-----------------------------------------------|
Tap to rate this tab
 
# A B C D E F G H I J K L M N O P Q R S T U V W X Y Z