Song name
# A B C D E F G H I J K L M N O P Q R S T U V W X Y Z

Creedence Clearwater Revival - The Night Time tab

Artist: Creedence Clearwater Revival
Title: The Night Time is The Right Time
Album: Green River
Tabber-Edwardthegreat5

--------------------------------------------------------12----15b--12-----12--|
-------------------12-12-------12-12-------12-12----15-----12---------15------|
------12-14-12-14bbbbbbbr--14bbbbbbbr--14bbbbbbbr-----------------------------|
--14--------------------------------------------------------------------------|
------------------------------------------------------------------------------|
------------------------------------------------------------------------------|
  INTRO      Bend G string at 14th fret while playing B string at 12th fret

--------------------------------|----------|----7-----------------------------|
-15-12------------------------12|----14-12-|----10----------------------------|
--------14-12-----------------12|----14-12-|----8-----------------------------|
---------------14^12-14----14---|-14-------|----7-----------------------------|
--------------------------------|----------|----9-----------------------------|
--------------------------------|----------|----7-----------------------------|
                                 3 times       B7
(E)7f    You know the right time (wah-do-day) ohh is the right time (wah-do-day)
         To be (wah-do-day) with the one you love (wah-do-day)
(A)5f    I said the night time(wah-do-day) ohh is the right time (wah-do-day)
(E)7f    To be (wah-do-day) with the one you love (wah-do-day)
(B7)7f   You know the night time (wah-do-day) (A)5f ohh is the right time
         (wah-do-day)(E)7f to be with the one you love (2 wah-do-days followed by B7 for 
beats)

         Baby(WDD) I said a baby(wdd) Baby(wdd) come on and drive my crazy love(wdd)
         You know I love you(wdd) always thinkin'of you(wdd) hey baby(WDD) allright
         I said a baby(wdd) you know the night time(wdd) ohh is the right time(wdd)
         to be with the one you love(2wdd, 8xB7)

----11/12-12-12-12-12-11/12-12-12-12-12-12|-11/12-12-12-12-12-12-|11/12-12-12-|
----11/12-12-12-12-12-11/12-12-12-12-12-12|-11/12-12-12-12-12-12-|11/12-12-12-|
------------------------------------------|----------------------|------------|
------------------------------------------|----------------------|------------|
------------------------------------------|----------------------|------------|
------------------------------------------|----------------------|------------|
 SOLO      riff 1                               riff2

--------------|-------|-------------|-------|-----------------------------0---|
--------------|-------|-------------|-------|-----------------------------3---|
-14------14v--|-------|16-----16-14v|-------|-----------------------------1---|
-14--14b-14v--|-------|16-----16-14v|-------|-----------------------------2---|
--------------|-------|-------------|-------|--7-7-5-5--------------2-----2---|
--------------|-------|-------------|-------|----------7-7-5-3-0-4--------0---|
               riff 1                riff 2     ENDING                   8 beats
Tap to rate this tab
 
# A B C D E F G H I J K L M N O P Q R S T U V W X Y Z