Song name
# A B C D E F G H I J K L M N O P Q R S T U V W X Y Z

Creedence Clearwater Revival - Wrote A Song For Everyone tab

WROTE A SONG FOR EVERYONE- CREEDENCE CLEARWATER REVIVAL


Tab diciphered by Janet Meisner (This is my first tab)
wilted_roses_7@hotmail.com
^^^^^Send your concerns there

NOTE: For the underlined chords throughout the chorus and verses, just add a little more rhythm


G: 320033
D: XXX0232
C: X32010
Em: 022000


INTRO SOLO:
	GUITAR ONE
E-|-------------------------------------------------------|
B-|-------------------------------------------------------|
G-|---------------------------7-----7---5--5--5--5--------|
D-|------9-----10p9--9-----9/7---7h9----2--2--2--5--------|
A-|-----10---10----10---10--------------------------------|
E-|-------------------------------------------------------|
	GUITAR TWO
--------G-------------------------D--------------C-------


INTRO BRIDGE:
	BOTH GUITARS
----G5---G5---B5---C5--------D5----G5---G5---B5---C5--------D5


VERSE ONE:
	BOTH GUITARS
G          D        C                G
Met myself a-comin’, country welfare line
G            C           G               D
I was feelin’ strung out, hung out on the line
G          D      Em               C
Saw myself a-goin’, down to war in June
G          D           C                    G
All I want, all I want, is to write myself a tune


CHORUS:
	BOTH GUITARS
C                 G
  Wrote a song for everyone
C                 G
  Wrote a song for truth
C                 G        Em
  Wrote a song for everyone--
C                     D5     G5
  When I couldn’t even talk to you


BOTH GUITARS REPEAT INTRO BRIDGE


VERSE TWO:
	BOTH GUITARS
G         D         C              G
Got myself arrested, wound me up in jail
G                C        G             D
Richmond ‘bout to blow up, communication fails
G             D      Em                 C
If you see the answer, now’s the time to say
G           D          C                        G
All I want, all I want, is to get right down and pray


BOTH GUITARS REPEAT CHORUS


SOLO:
	GUITAR ONE
E-|-----------------------------------------------------------------------------|
B-|-----------------------------------------------------------------------------|
G-|----------------------------------12--12—14b---r--12--14--12-------9--7------|
D-|-----------------12-12-12h14-------------------------------------------9--7--|
A-|---12h-14--14----------------------------------------------------------------|
E-|-----------------------------------------------------------------------------|

E-|----------------------------------------------------------------------------|
B-|-----------------------------------------------------------7~~--------------|
G-|------7----7----7----7---9-----------7--7-h9---------7-----7----------------|
D-|----9----9----9----9---9--10~~~~-------------h9---7-------7-----------------|
A-|----------------------------------------------------------------------------|
E-|----------------------------------------------------------------------------|

E-|--------------------------------------7------------8------------------------------------------------------------|
B-|------------8---8p7~~------------8--8------5-----5---------------8~~-------8------------------------------------|
G-|------7-7---------------7~~~---9--------------5----5--------9-/7-------7-/5-----5-5------7-7-7-7----------------|
D-|----9-----------------------------------------------------------9-/7-------7-/5-----5-5------7-7-7-7----5-------|
A-|------------------------------------------------------------------------------------------------5-5-5-5----5----|
E-|-------------------------------------------------------------------------------------------------------------3--|
	GUITAR TWO
Simply repeat the verse chords over the solo (same rhythm as before)


BOTH GUITARS REPEAT CHORUS


BRIDGE:
	GUITAR ONE
E-|---------------------------------------------|
B-|---8--8----10--/-12—10-----5~~---------------|
G-|---------------------------------------------|
D-|---------------------------------------------|
A-|--10-10---12--/-14--12-----7~~---------------|
E-|---------------------------------------------|
	GUITAR TWO
-----G5------------D5---------A5--------


VERSE THREE:
	BOTH GUITARS
G             D         C                   G
Saw the people standin’, a thousand years in chains
G                 C              G                  D
Somebody said it’s different now; look it’s just the same
G                D       Em                   C
Pharaohs spin the message, round and round and round
G                     D               C              G
They couldn’t save the million people, how can I tell you?


BOTH GUITARS REPEAT CHORUS THREE TIMES


INTRO BRIDGE:
	BOTH GUITARS
----G5---G5---B5---C5--------D5---G5
				^High G Power Chord
Tap to rate this tab
 
# A B C D E F G H I J K L M N O P Q R S T U V W X Y Z