Song name
# A B C D E F G H I J K L M N O P Q R S T U V W X Y Z

Crematorium - A Disconsolate Winter Landscape tab

              A Disconsolate Winter Landscape                
                     By: Crematorium


                                                      Lohrbas
Guitar II
Drop C Tuning {C,G,C,F,A,D}



                                                 
D||-----------------------|---------------------|
A||-----------------------|---------------------|
F||-----------------------|---------------------|
C||-------1----3----4--3--|-------3----4--------|
G||-----------------------|--4------------------|
C||--1--------------------|---------------------|


                                              
-----------------------|---------------------|
-----------------------|---------------------|
-----------------------|---------------------|
-------1----3----4--3--|-------3----4--------|
-----------------------|--4------------------|
--1--------------------|---------------------|


                                                          
----------------------------|----------------------------|
----------------------------|----------------------------|
----------------------------|----------------------------|
-----1---4-3-1----1---4-3-1-|-------3----4-3-1-4-3-1-4-3-|
----------------------------|--4-------------------------|
--1------------1------------|----------------------------|


                                                          
----------------------------|----------------------------||
----------------------------|----------------------------||
----------------------------|----------------------------||
-----1---4-3-1----1---4-3-1-|-------3----4-3-1-4-3-1-4-3-||
----------------------------|--4-------------------------||
--1------------1------------|----------------------------||
Tap to rate this tab
# A B C D E F G H I J K L M N O P Q R S T U V W X Y Z