Song name
# A B C D E F G H I J K L M N O P Q R S T U V W X Y Z

Crematory - Greed tab

Intro:

e---------------------------------------------------------|
b----2--4--6~~----6-4--2--4~--------5--4--2~~--------9~~~-|
g--3------------------------3~~-------------------5~------|
d---------------------------------------------------------|
a---------------------------------------------------------|
d---------------------------------------------------------|

Intro 2:

e-----------------------------------|
b-----------------------------------|
g-----------------------------------|
d-----------------------------------|
a-----------------------------------|
d-00001~-0000001~-0000001~-00000022-|

Verse:

e------------------------------------------------------------------|
b------------------------------------------------------------------|
g------------------------------------------------------------------|
d------------------------------------------------------------------|
a------------------------------------------------------------------|
d-100200100200102010020010020010201002001002001020100200100200102~-

e------------------------------------------------------------------|
b------------------------------------------------------------------|
g-------------------------------------------------------------3333-|
d-------------------------------------------------------------3333-|
a-------------------------------------------------------------3333-|
d-100200100200102010020010020010201002001002001020100200100200-----|

Chorus:

e------------------------------------------------------------------|
b------------------------------------------------------------------|
g------------------------------------------------------------------|
d-55555555555555557777777777777777555555555555555533333333---------|
a-55555555555555557777777777777777555555555555555533333333---------|
d-5555555555555555777777777777777755555555555555553333333310010010-|

Bridge 1(first right guitar and then the left one):

e-------------------------|
b-------------------------|
g-------------------------|
d----------------0-0------|
a--00-----00-----020------|
d--00-----00-----020------|

Bridge 2(I can't get this part well):

e-------------------------------------------------------------------|
b-------------------------------------------------------------------|
g-------------------------------------------------------------------|
d-------------------------------------------------------------------|
a------------------4-4-4-4-4-4-4-4-4-4-4-4-4-4-4-4-4-4-4-4----------|
d--5-5-5-5-5-5-5-5-----------------------------------------10010010-|

Something like solo:

e-----------------------------------------------------------|
b------9-7-6-------9-7-6-6~~--------------------------------|
g-5~----------5~--------------------------------------------|
d-----------------------------------------------------------|
a-----------------------------------------------------------|
d-----------------------------------------------------------|


Any comment to ynzekt@hotmail.es
Tap to rate this tab
 
# A B C D E F G H I J K L M N O P Q R S T U V W X Y Z