Song name
# A B C D E F G H I J K L M N O P Q R S T U V W X Y Z

Crime In Stereo - Gravity Grace tab

Artist: Crime in Stereo
Song: Gravity Grace
Album: The Troubled Stateside


Tuning: Standard (EADGBe)


/ - Slide
b - Bend

INTRO
Guitar 1:
e | -------------------------0------------0--------|
B | ---------------------------0------------0------|
G | ---4--------4--------4--------4----4-------4---|
D | -----2--------2--------2-------------2---------|
A | -0--------4--------2------------2--------------|
E | -----------------------------------------------|

VERSE
Guitar 1:
e | ------------2---2---2---2----2---2/4-2-0-|
B | -2/5---/5-----5---5---5---5----5---------|
G | -----------------------------------------|
D | -----------------------------------------|
A | -----------------------------------------|  x4
E | -----------------------------------------|

PRE-CHORUS:
Guitar 1:
e | ---------0----------0--------------------|
B | -----------------------------------------|
G | -----------------------------------------|
D | ---4h6h7------4h6h7------6-4-2-----6-4-2-|
A | -0----------4----------2---------2-------| x2
E | -----------------------------------------|

Guitar 2:
e | ------------------------------------------|
B | ------------------------------------------|
G | --------6------4-4-4--4/6/4--4-4-4--4/6/4-|
D | -7------X-(x6)-X-X-X--X-X-X--X-X-X--X-X-X-|
A | -X-(x6)-4------2-2-2--2/4/2--2-2-2--2/4/6-|
E | -5----------------------------------------|

e | -------------------------------|
B | -------------------------------|
G | --------6------4-4-4--4/6/4--4-|
D | -7------X-(x6)-X-X-X--X-X-X--X-|
A | -X-(x6)-4------2-2-2--2/4/2--2-|
E | -5-----------------------------|


CHORUS
Guitars 1 and 2:
e | -----------------------|
B | -----------------------|
G | -2------6------4-------|
D | -2-(x6)-6-(x6)-4-(x12)-|
A | -0------4------2-------|  x4
E | -----------------------|

REPEAT VERSE (Only twice, rather than 4x)


REPEAT PRE-CHORUS


REPEAT CHORUS


BRIDGE
Guitar 1:
e | ---------------------------------------------4-2-0-|
B | ---------------------------------------------------|
G | -9-------8--9------11-9-8---4--------2-------------|
D | -X-(x11)-X--X-(x5)-X--X-X---X-(x12)--2-(x10)-------|
A | -7-------6--7------9--7-6---2--------0-------------|  x2
E | ---------------------------------------------------|

Guitar2:
e | ------------|
B | ------------|
G | -9--6--4--2-|
D | -9--6--4--2-|
A | -7--4--2--0-|  x2
E | ------------|

BREAK:
Guitar 1:
e | --------------------------------|
B | -------------4b--------------4b-|
G | -----4---------------4b---------|
D | ---2-------2-------2-------2----|
A | -0-------4-------2-------2------|  x5 (last time is just guitar)
E | --------------------------------|

REPEAT CHORUS


REPEAT BRIDGE


END ON:
e | ---
B | -0-
G | -2-
D | -2-
A | -0-
E | ---


You can follow the bass notes with Guitar 2 throughout the song,
if you want to make it sound more full...
But that's pretty much it.
Enjoy!

Tabbed by: Mike Paulshock
Tap to rate this tab
# A B C D E F G H I J K L M N O P Q R S T U V W X Y Z