Crime In Stereo - Bicycles For Afghanistan tab

Bicycles For Afghanistan
Crime in stereo

So for the first to chords C#m on fret 4 I m pretty sure it's right for the second I'm 
too Asus2. But the next are kinda tricky because they get higher an then deeper again so 
s pretty much up to you to find it out. btw this is just the background guitar.

The strumming pattern is I think down 3 times then then down up down up down up

e | --------4-4-4--4-4-4--------------------------------|
B | --------5-5-5--5-5-5--------------------------------|
G | --------6-6-6--6-6-6----2-2-2--2-2-2----------------|
D | --------6-6-6--6-6-6----2-2-2--2-2-2----------------|
A | --------4-4-4--4-4-4--------------------------------|
E | ----------------------------------------------------|

e | -------9--9--9---9--9--9----------------------------|
B | -------10-10-10--10-10-10---------------------------|
G | -------11-11-11--11-11-11---------------------------|
D | -------11-11-11--11-11-11--------2-2-2--2-2-2-------|
A | -------9--9--9---9--9--9---------2-2-2--2-2-2-------|
E | ----------------------------------------------------|

That's all I figured out please help or correct.
as i said the scond part might be wrong.
Tap to rate this tab
 
# A B C D E F G H I J K L M N O P Q R S T U V W X Y Z