Song name
# A B C D E F G H I J K L M N O P Q R S T U V W X Y Z

Crime In Stereo - Dark Island City tab

                        Dark Island City
Simple enough, tabbed out all the way through to save confusion.

e|-------------------------------------------------------------------|
B|-------12-------------------------12-14-12-12.12-------------12----|
G|-------------------------------------------------14.13-------------|
D|-13-14----13-14-11----11-13-13-14----------------------13-14-------|
A|-------------------14----------------------------------------------|
E|-------------------------------------------------------------------|


e|-------------------------------------------------------------------|
B|-------------------------------------------------------------------|
G|-------------------------------------------------------------------|
D|-13-14-11----11-13.13----11-13-11----------------------------------|
A|----------14----------14----------14--14-12-11---------------------|
E|-----------------------------------------------14------------------|


e|------------------------------------------------------------------------------------|
B|------------------------------------------------------------------------------------|
G|------16------16------16b(18)-16.16/14-14.14.14.14h13-13-13----14-13.13.13.13/11-11-|
D|-13h14---13h14---13h14-------------------------------------14-----------------------|
A|------------------------------------------------------------------------------------|
E|------------------------------------------------------------------------------------|

e|------------------------------------------------------------------------------------|
B|------------------------------------------------------------------------------------|
G|------16------16------16b(18)-16.16/14-14.14.14.14h13-13-13----14-13.13.13.13/11-11-|
D|-13h14---13h14---13h14-------------------------------------14-----------------------|
A|------------------------------------------------------------------------------------|
E|------------------------------------------------------------------------------------|
e|------------------------------------------------------------------------------------|
B|------------------------------------------------------------------------------------|
G|------16------16------16b(18)-16.16/14-14.14.14.14h13-13-13----14-13.13.13.13/11-11-|
D|-13h14---13h14---13h14-------------------------------------14-----------------------|
A|------------------------------------------------------------------------------------|
E|------------------------------------------------------------------------------------|

e|------------------------------------------------------------------------------------|
B|------------------------------------------------------------------------------------|
G|------16------16------16b(18)-16.16/14-14.14.14.14h13-13-13----14-13.13.13.13/11-11-|
D|-13h14---13h14---13h14-------------------------------------14-----------------------|
A|------------------------------------------------------------------------------------|
E|------------------------------------------------------------------------------------|


e|---------------------------------------|
B|---------------------------------------|
G|14h13-13-13----14-13.13.13.13/11-11/9--|
D|------------14-------------------------|
A|---------------------------------------|
E|---------------------------------------|

I only have a single photograph of me and you. 
It's from last New Years at my place.
I look half drunk and half obscured by some crusty punk. 
You're all done up and already walking away.


e|----------------------------------------------------------|
B|----------------------------------------------------------|
G|-------12--------12b(14)-------12-------------------------|
D|----------------------------------------------------------|
A|-13-14------13-14--------13-14-----13-14-13-14-13-11-11~--|
E|----------------------------------------------------------|

e|----------------------------------------------------------|
B|----------------------------------------------------------|
G|-------12--------12b(14)-------12-------------------------|
D|----------------------------------------------------------|
A|-13-14------13-14--------13-14-----13-14-13-14-13-11-11~--|
E|----------------------------------------------------------|


e|----------------------------------------------------------|
B|----------------------------------------------------------|
G|-------12--------12b(14)-------12-------------------------|
D|----------------------------------------------------------|
A|-13-14------13-14--------13-14-----13-14-13-14-13-11-11~--|
E|----------------------------------------------------------|


e|-----------------------------------11-12-11-12-11---------|
B|--------------------------------------------------14-14~--|
G|-------12--------12b(14)-------12-------------------------|
D|----------------------------------------------------------|
A|-13-14------13-14--------13-14----------------------------|
E|----------------------------------------------------------|


e|------------------------------------------------------------------------------------|
B|------------------------------------------------------------------------------------|
G|------16------16------16b(18)-16.16/14-14.14.14.14h13-13-13----14-13.13.13.13/11-11-|
D|-13h14---13h14---13h14-------------------------------------14-----------------------|
A|------------------------------------------------------------------------------------|
E|------------------------------------------------------------------------------------|

e|------------------------------------------------------------------------------------|
B|------------------------------------------------------------------------------------|
G|------16------16------16b(18)-16.16/14-14.14.14.14h13-13-13----14-13.13.13.13/11-11-|
D|-13h14---13h14---13h14-------------------------------------14-----------------------|
A|------------------------------------------------------------------------------------|
E|------------------------------------------------------------------------------------|

e|------------------------------------------------------------------------------------|
B|------------------------------------------------------------------------------------|
G|------16------16------16b(18)-16.16/14-14.14.14.14h13-13-13----14-13.13.13.13/11-11-|
D|-13h14---13h14---13h14-------------------------------------14-----------------------|
A|------------------------------------------------------------------------------------|
E|------------------------------------------------------------------------------------|

e|------------------------------------------------------------------------------------|
B|------------------------------------------------------------------------------------|
G|------16------16------16b(18)-16.16/14-14.14.14.14h13-13-13----14-13.13.13.13/11-11-|
D|-13h14---13h14---13h14-------------------------------------14-----------------------|
A|------------------------------------------------------------------------------------|
E|------------------------------------------------------------------------------------|

e|---------------------------------------|
B|---------------------------------------|
G|14h13-13-13----14-13.13.13.13/11-11/9--|
D|------------14-------------------------|
A|---------------------------------------|
E|---------------------------------------|

Slowly fade out in the last section.

http://www.crimeinstereo.com/
Tap to rate this tab
# A B C D E F G H I J K L M N O P Q R S T U V W X Y Z