Song name
# A B C D E F G H I J K L M N O P Q R S T U V W X Y Z

Crimes Against Music - Colonel Wickey tab

t. See http://www.olga.net/faq/ for more information.                     #
#-----------------------------------------------------------------------------#

Date: Thu, 09 Sep 1999 15:09:13 +0100
From: Jeremy Thomson 
Subject: c/crimes_against_music/colonel_wickey.crd

Colonel Wickey  -  by Crimes Against Music

--------------     -----------------------



Music - The Pink Floyd

Word - Crimes Against Music



E7+9 0 7 6 7 8 0

A  - 5 7 7 6 5 5 

A7 - 5 7 5 6 5 5 

Ab - 4 6 6 5 4 4

G  - 3 5 5 4 3 3 

D  - 5 5 7 7 7 5

C  - 3 3 5 5 5 3



Riff 1:

       1   2   3   4     1   2   3   4     1   2   3   4

e ---|-------------0---|-----0-------0---|-----0-------0--|

B ---|-------------8---|-----8-------8---|-----8-------8--|

G ---|-------------7---|-----7-------7---|-----7-------7--|

D ---|-------------6---|-----6-------6---|-----6-------6--|

A ---|-2-3-2-------7---|-----7-------7---|-----7-------7--|

E -0-|-------3b0---0--0|-0-0-0---0---0---|-0---0-0-0-0-0--|



Riff 2:

    1   2   3   4    1   2   3   4

e |----------------|----------------|

B |----------------|----------------|

G |----------------|----------------|

D |---4-3----------|----------------|

A |-2-----2-----2--|----------------|  ( b = slight bend on

E |---------3b5---0|-2---2---2---2--|    previous note)



Verse 1:

A          C  D                  A

Doctor Wickens ...

Riff 1                 

From ..

Riff 1

His ...

A       C   D                A

Doctor Wickens ...

Riff 1

He says ..

Riff 1

When he ..



Chorus:

Bm / Riff 2                     F#

Bm / Riff 2                      F#

D                                 G 

D                            G


Bridge (with kazoo / comb):


A  Ab G  D  A7 D  G  D  A7 D



Verse 2:

Outro:
Tap to rate this tab
# A B C D E F G H I J K L M N O P Q R S T U V W X Y Z