Song name
# A B C D E F G H I J K L M N O P Q R S T U V W X Y Z

Crimson Falls - We Are The Dead tab

Help us improve GuitareTab! Take a short survey!
-------------------------------------------------------------------------------
	               WE ARE THE DEAD - Crimson Falls
-------------------------------------------------------------------------------
Tabbed by: Numinis
Email: emanuel_dhondt@msn.com

Tuning: Drop C

D|---------------------------------------------------------------------------|
A|---------------------------------------------------------------------------|
F|-----------------------------------------10--------6--------6-8-9----------|
C|-6-9-8-6--6-9-8-6-8-9--6-8-9-6--6-8-9-6-8----6-8-9----6-8-9----------------|
G|---------------------------------------------------------------------------|
C|---------------------------------------------------------------------------|

D|---------------------------------------------------------------------------|
A|---------------------------------------------------------------------------|
F|-8-8-9-8-6-8-9-8-6---------------------------------------------------------|
G|-------------------9-8-----------------------------------------------------|
C|---------------------------------------------------------------------------|
G|---------------------------------------------------------------------------|

http://www.myspace.com/crimsonfalls
| /  slide up
| \  slide down
| h  hammer-on
| p  pull-off
| ~  vibrato
| +  harmonic
| x  Mute note
===============================================================================
Related for We Are The Dead tab