Song name
# A B C D E F G H I J K L M N O P Q R S T U V W X Y Z

Cripple Bastards - I Hate Her tab

                     Band: Cripple Bastards
                     Song: I Hate Her
               Tabbed By: Chris Povey
              ( www.cripple-bastards.com )



. - palm mute / - slide up to 
\ - slide down to ~ - vibrato 
h - hammer on b - Bend 
p - pull off Suffixes for bend 
t - tap f - full bend h - half bend 
ph - pinched harmonic q - quarter bend t - tap bend 
* - see comment ^ - Hold bend r release bend 
x - Stuccatto ~ - vibrato bend 
, - slight palm mute () - ghost note, sustained note 
" - tremolo note <> - Trill 

Tuning D G C F A D 

Riff A x4 
|-------------------------------------------------------------------| 
|-------------------------------------------------------------------| 
|-------------------------------------------------------------------| 
|-------------------------------------------------------------------| 
|--5-----5------4--5--4---------------------------------------------| 
|--3-000-3-000--2--3--2---------------------------------------------| 

Riff B1 x7 (all 0s PM here) 
|-------------------------------------------------------------------| 
|-------------------------------------------------------------------| 
|-------------------------------------------------------------------| 
|-------------------------------------------------------------------| 
|--5--6-----5--6-------5---6---5------------------------------------| 
|--3--4-00-03--4-00---03-004-003-0000-------------------------------| 

Riff B2 x1 * Slow down tempo let last chord ring. 
|-------------------------------------------------------------------| 
|-------------------------------------------------------------------| 
|-------------------------------------------------------------------| 
|-------------------------------------------------------------------| 
|--5--6-----5--6-------5---6---5---4--------------------------------| 
|--3--4-00-03--4-00---03---4---3---2--------------------------------| 

Riff A x4 

That's It!!!!!!!!! Long live CxBx!!!!!!!!!!! 
END
Tap to rate this tab
# A B C D E F G H I J K L M N O P Q R S T U V W X Y Z