Guitaretab - guitar tabs
Song name
# A B C D E F G H I J K L M N O P Q R S T U V W X Y Z

Cripple Bastards - Prejudcies And Walls tab

                       Band: Cripple Bastards
                       Song: Prejudices And Walls
                       Album: Your lies In Check
                     Tabbed By: ChriS Povey (metallica-best@hotmail.co.uk)

Use Very Heavy Distortion

Intro And verse
[ Tab from: http://www.guitaretab.com/c/cripple-bastards/98055.html ]
e|--------------------------------------------------------------------------|
B|--------------------------------------------------------------------------|
G|--------------------------------------------------------------------------|
D|---------------9-\--7-----------------------------------------------------|
A|--7---7--7-----7-\--5-----------------------------------------------------|
E|--5---5--5----------------------------------------------------------------|

Repeat The Intro And Verse About 3 Times Very, Very Fast

Outro (Played Twice)

e|--------------------------------------------------------------------------|
B|--------------------------------------------------------------------------|
G|--------------------------------------------------------------------------|
D|--------------------------------------------------------------------------|
A|---------3-----5-----3----------------------------------------------------|
E|---------5-----3-----5----------------------------------------------------|

Thats It,

Note: It's Only A 37 Second Song So Play Very Fast!
Related for Prejudcies And Walls tab
×
Prejudcies And Walls