Guitaretab - guitar tabs
Song name
# A B C D E F G H I J K L M N O P Q R S T U V W X Y Z

Crippled Black Phoenix - Sharks Storms Blizzard Of Horned Cats tab

-------------------------------------------------------------------------------
      SHARKS & STORMS / BLIZZARD OF HORNED CATS - Crippled Black Phoenix
-------------------------------------------------------------------------------
tabbed by: jahu
email: bueee@o2.pl

tuning: standard (EADGBe)
time signature: 3/4 + 4/4 + 4/4


during the first part of the song most fun is to have a little jam in E minor.
the slides are actually legato slides.

e|----------------|-------------------|--------------------|
B|----------------|-------------------|--------------------|
G|-9---9/11-11/12-|-12-----------14---|-11-------11/12-----|
D|----------------|-------------------|--------------------|
A|----------------|-------------------|--------------------|
E|----------------|-------------------|--------------------|

e|----------------|-------------------|--------------------|
B|----------------|-------------------|-10-----------------|
G|-9---9/11-11/12-|-12-----------12---|-11-------12\11-----|
D|----------------|-------------------|--------------------|
A|----------------|-------------------|--------------------|
E|----------------|-------------------|--------------------|

e|---------------|------------------|-----------------|
B|---------------|------------------|-----------------|
G|-9---9/11-11\9-|-9-----------11---|-9-------7-------|
D|---------------|------------------|-----------------|
A|---------------|------------------|-----------------|
E|---------------|------------------|-----------------|

e|----------------|-------------------|-------------------|
B|----------------|--------------10---|-12----------------|
G|-9---9/11-11/12-|-12----------------|-11-------7-----11-|
D|----------------|-------------------|-------------------|
A|----------------|-------------------|-------------------|
E|----------------|-------------------|-------------------|

etc...


3:35
piano interlude part
[ Tab from: http://www.guitaretab.com/c/crippled-black-phoenix/117020.html ]
note that the first time this is played the second bar
  looks a little bit different. notes on the E string are
  not 3 3 3 5 7, but 3 3 5 7 7.

e|--7-----7-----7-----5-----|--3-----3-----3-----5-----7-------|
B|----8-----8-----8-----7---|----5-----5-----5-----5-----5-----|
G|------9-----9-----9-----7-|------5-----5-----5-----5-----5---|
D|--------------------------|----------------------------------|
A|-(7)-------------(5)------|-(3)------------------------------|
E|--------------------------|----------------------------------|

e|--2-----2-----2-----2-----2-------|
B|----3-----3-----3-----3-----3-----|
G|------4-----4-----4-----4-----4---|
D|----------------------------------|
A|-(2)-------------(5)--------------|
E|----------------------------------|


4:36

e|----15-15----15----|----------------------14-|-------------------12----|
B|-------------------|----17-17----17----17----|----17-17-------15-------|
G|-16-------16----16-|-16-------16----16-------|-16-------16-14-------14-|
D|-------------------|-------------------------|-------------------------|
A|-------------------|-------------------------|-------------------------|
E|-------------------|-------------------------|-------------------------|


I also like to play these chords, not to be bored repeating the above 3 bars
for more than 3 minutes:

   e       D     C                 b       D

e|-0-------2---|-0---------------|-2-------2-------|
B|-8-------3---|-1---------------|-3-------3-------|
G|-9-------2---|-0---------------|-4-------2-------|
D|-9-------0---|-2---------------|-4-------0-------|
A|-7-------0---|-3---------------|-2-------0-------|
E|-0-----------|-----------------|-----------------|

or:

e|-12-------10---|--8---------------|-7-------10-------|
B|-12-------10---|--8---------------|-7-------10-------|
G|-12-------11---|--9---------------|-7-------11-------|
D|-14-------12---|-10---------------|-9-------12-------|
A|-14-------12---|-10---------------|-9-------12-------|
E|-12-------10---|--8---------------|-7-------10-------|


http://www.crippledblackphoenix.com/
http://www.myspace.com/crippledblackphoenix
===============================================================================
Related for Sharks Storms Blizzard Of Horned Cats tab
Advertisement will be closed in 10 seconds