Song name
# A B C D E F G H I J K L M N O P Q R S T U V W X Y Z

Crippled Black Phoenix - Long Cold Summer tab

-------------------------------------------------------------------------------
                     LONG COLD SUMMER - Crippled Black Phoenix
-------------------------------------------------------------------------------
tabbed by: jahu
email: bueee@o2.pl

tuning: standard (EADGBe)

use some delay

play this 7x

e|---------|---------|---------|---------|
B|---------|---------|---------|---------|
G|---------|-2---3---|---------|-2---3---|
D|-0-------|---------|-0-------|---------|
A|---------|---------|---------|---------|
E|---------|---------|---------|---------|

e|---------|---------|---------|---------|
B|---------|---------|---------|---------|
G|---------|-2---3---|---------|-2---3---|
D|---------|---------|---------|---------|
A|-3-------|---------|-3-------|-------3-|
E|---------|---------|---------|---------|

e|---------|---------|---------|---------|
B|---------|---------|---------|---------|
G|---------|---------|-2-------|-3-------|
D|---------|-3-------|---------|---------|
A|-1-------|---------|---------|---------|
E|---------|---------|---------|---------|

e|---------|---------|---------|---------|
B|---------|---------|---------|---------|
G|---------|---------|---------|---------|
D|-0-------|---------|---------|---------|
A|---------|---------|---------|---------|
E|---------|---------|---------|---------|


4:12 - slight changes

e|---------|---------|---------|---------|
B|---------|---------|---------|---------|
G|---------|-2---3---|---------|-2---3---|
D|-0-------|---------|-0-------|---------|
A|---------|---------|---------|---------|
E|---------|---------|---------|---------|

e|---------|---------|---------|---------|
B|---------|---------|---------|---------|
G|---------|-2---3---|---------|-3---2---|
D|---------|---------|---------|---------|
A|-3-------|---------|-3-------|-------3-|
E|---------|---------|---------|---------|

e|---------|---------|---------|---------|
B|---------|---------|---------|---------|
G|---------|---------|-2-------|-3-------|
D|---------|-3-------|---------|---------|
A|-1-------|---------|---------|---------|
E|---------|---------|---------|---------|

e|---------|---------|---------|---------|
B|---------|---------|---------|---------|
G|---------|---------|---7-----|---------|
D|---0-----|---------|-0-------|---------|
A|-0-------|---------|---------|---------|
E|---------|---------|---------|---------|


4:49

e|---------|---------|---------|---------|
B|---------|---------|---------|---------|
G|-0-------|-2---3---|-0-------|-2---3---|
D|-0-------|---------|-0-------|---------|
A|---------|---------|---------|---------|
E|---------|---------|---------|---------|

e|---------|---------|---------|----------|
B|---------|---------|---------|----------|
G|---------|-2---3---|---------|-2---3----|
D|---------|---------|---------|----------|
A|-3-------|---------|-3-------|-------3^-|
E|---------|---------|---------|----------|

e|---------|---------|---------|----------|
B|---------|---------|---------|----------|
G|---------|---------|-2-------|-3^-------|
D|---------|-3-------|---------|----------|
A|-1-------|---------|---------|----------|
E|---------|---------|---------|----------|

e|---------|----------|---------|---------|
B|---------|----------|---------|---------|
G|---------|-3^-------|---------|---------|
D|-0-------|----------|---------|---------|
A|---------|----------|---------|---------|
E|---------|----------|---------|---------|


5:27
play something sad around these notes.
it's good to hit an open D string once in a while too.

e|--------------------------|
B|--------------------------|
G|-5--7--9--10--12--14--17--|
D|--------------------------|
A|--------------------------|
E|--------------------------|


http://www.crippledblackphoenix.com/
http://www.myspace.com/crippledblackphoenix
===============================================================================
Tap to rate this tab
# A B C D E F G H I J K L M N O P Q R S T U V W X Y Z