Song name
# A B C D E F G H I J K L M N O P Q R S T U V W X Y Z

Crispy Ambulance - Concorde Square tab

Band/Artist: Crispy Ambulance
Song title: "Concorde Square"
Album: Live on a Hot August Night (1981),
 The Plateau Phase (CD reissue, 1999)

www.crispyambulance.com

standard tuning

RIFF 1
(listen for strumming pattern)
Guitar
  C#5(add 5)   B5(add 5)
e-16-----------14-----------|
B-14-----------12-----------|
G-13-----------11-----------|
D-11-----------9------------|
A---------------------------|
E---------------------------|

RIFF 2
  Ab           B
e-4------------7------------|
B-4------------7------------|
G-5------------8------------|
D-6------------9------------|
A-6------------9------------|
E-4------------7------------|

RIFF 3
e------------------------------------------||
B---------------3------3------5p0----------||
G-1------1---------------------------4p3---|| x 4
D------------------------------------------||
A------------------------------------------||
E------------------------------------------||
R3 cont.
e------------------------------------------||
B------------------------------------------||
G-1------1---------------------------------|| x 2
D----------------------2------0------2-----||
A------------------------------------------||
E------------------------------------------||
R3 cont.
e------------------------------------------|
B------------------------------------------|
G-1------1-------------3------4---/6p4\3---|
D------------------------------------------|
A------------------------------------------|
E------------------------------------------|
R3 cont.
e------------------------------------------|
B------------------------------------------|
G-1------1------1------3------4------------|
D------------------------------------------|
A------------------------------------------|
E------------------------------------------|

The song's sequence of guitar riffs is:
R1 x2
R2 x2
R1 x4
R3 x1
R1 x2
R2 x2
R1 x4
R3 x1
R2 x6 end on Ab chord

BASS
Riff 1
G-------------3-3-3-4-4-4-3-3-----|
D-6-6-X-6-6-6-----------------6-4-|
A---------------------------------|
E---------------------------------|

Riff 2
G-------3-3-3-4-4-4-7-7-7-4-4-3---||
D-6-6-6-------------------------4-|| x 4
A---------------------------------||
E---------------------------------||

Riff 3
G----------------/7-7-7-7-6h7-6h7-|
D-6-6-X-6-6-6-6-6-----------------|
A---------------------------------|
E---------------------------------|
R3 cont.
G-----------------4-4-4-4-4-3-----||
D-6-6-X-6-6-6-6-6-------------4---|| x 2
A---------------------------------||
E---------------------------------||

Riff 4
G---------------------------------|
D---------------------------------|
A-------------7-7-7-5-5-5---------|
E-4-4-X-4-4-4-------------7-7-6-X-|

The song's sequence of bass riffs is:
R1 x16
R2 x1
R3 x1
R1 x16
R2 x1
R3 x1
R4 x12 end on Ab note with guitar


That's it. Please feel free to leave comments, corrections, suggestions,
 and requests. Cheers!

-Bennyshambles78-
Tap to rate this tab
# A B C D E F G H I J K L M N O P Q R S T U V W X Y Z