Song name
# A B C D E F G H I J K L M N O P Q R S T U V W X Y Z

Crispy Ambulance - Bardo Plane tab

Band/Artist: Crispy Ambulance
Song title: "Bardo Plane"
Album: The Plateau Phase (1982)
www.crispyambulance.com

standard tuning

Guitar 1
VERSE / MAIN RIFF
e-6------6---6-6-6-6-5---5-----|
B-4------4---4-4-4-4-4---4-----|
G-5------5---5-5-5-5-5---5-----|
D------------------------------|
A------------------------------|
E------------------------------|
cont.
e-5------5---5-5-5-5-4---0-----|
B-3------3---3-3-3-3-3---3-----|
G-4------4---4-4-4-4-4---4-----|
D------------------------------|
A------------------------------|
E------------------------------|
cont.
e---0-----0-----0----|
B-----3-----3-----3--|
G-4-----4-----4------|
D--------------------|
A--------------------|
E--------------------|

CHORUS RIFF
Guitar 1
e-----------------15-------------------15------15\14-------------|
B------------13-------------------13--------13---(12)------------|
G-11/12~---------------11/12~-----------------------------11~----|
D----------------------------------------------------------------|
A----------------------------------------------------------------|
E----------------------------------------------------------------|

Guitar 2
e----------(12)----------------(12)--------|
B---10/12---12-12-12-12-10/12---12-12-12-12|
G---10/12---12-12-12-12-10/12---12-12-12-12|
D------------------------------------------|
A------------------------------------------|
E------------------------------------------|
cont.
e--------(12)----------------(12)--------|
B-10/12---12-12-12-12-10/12---12-12-12-12|
G-10/12---12-12-12-12-10/12---12-12-12-12|
D----------------------------------------|
A----------------------------------------|
E----------------------------------------|
cont.
e--------(14)----------------(14)--------|
B-12/14---14-14-14-14-12/14---14-14-14-14|
G-12/14---14-14-14-14-12/14---14-14-14-14|
D----------------------------------------|
A----------------------------------------|
E----------------------------------------|
cont.
e--------(14)----------------(14)--------|
B-12/14---14-14-14-14-12/14---14-14-14-14|
G-12/14---14-14-14-14-12/14---14-14-14-14|
D----------------------------------------|
A----------------------------------------|
E----------------------------------------|

OUTRO (last four measures, all harmonics)
Guitar 1 & 2
e----------[12][12]--[12][12]--------[12][12][12]-|
B----------[12][12]--[12][12]--------[12][12][12]-|
G----------[12][12]--[12][12]--------[12][12][12]-| x 3
D----------[12][12]--[12][12]--------[12][12][12]-|
A-------------------------------------------------|
E-------------------------------------------------|
cont.
e----------[12][12]--[12][12][12]-|
B----------[12][12]--[12][12][12]-|
G----------[12][12]--[12][12][12]-|
D----------[12][12]--[12][12][12]-|
A---------------------------------|
E---------------------------------|


Bass
MAIN RIFF
G----------------------------------------|
D------------------------------------10--|
A--------------------8-8---10--/12-------|
E-1010---1010---10-----------------------|

CHORUS RIFF (alternate with main riff)
G-------------------------------9--------|
D------------------------------------10--|
A--------------------8-8---10------------|
E-1010---1010---10-----------------------|


That's it. Please feel free to leave comments, corrections, suggestions,
 and requests. Cheers!

-Bennyshambles78-
Tap to rate this tab
# A B C D E F G H I J K L M N O P Q R S T U V W X Y Z