Song name
# A B C D E F G H I J K L M N O P Q R S T U V W X Y Z

Criss Angel - Mf2 tab

Artist: Criss Angel
Song: Mf2
Tabed by: Jose Hernandez a.K.a teddy1
Tuning: Drop D (e,B,G,D,A,D)

this is my first tab, not 100% correct but it's close,
i recommend to listen to the song and play along, it makes it easier to learn. So 
me if you have any questions or corrections
or e-mail me at jose_plays_guitar@yahoo.com, this is a great song...

h - hammer on
~ - let ring for a while (play along with the song to figure out the timing)
p - pull off
/ - slide
. - palm mute


Intro-GtrI
e|-----------------------------------------|2x's
B|-----------------------------------------|
G|-----------------------------------7-----|
D|---------------------------------7---7---|
A|--0-00-00-00-00-000-00-00---3h5----------|
D|--0-00-00-00-00-000-00-00----------------|
    .......................

 |GtrI
e||-----------------------------------------|1x
B||-----------------------------------------|
G||-----------------------------------7-----|
D||---------------------------------7---7---|
A||--0-00-00-00-00-000-00-00---3h5----------|
D||--0-00-00-00-00-000-00-00----------------|
 |   .......................
 |GtrII
e||-----------------------------------------|
B||-----------------------------------------|
G||-----------------------------------------|
D||-----------------------------------------|
A||--0-00-00-00-00-000-00-00----------------|
D||--0-00-00-00-00-000-00-00----------------|
 |   .......................

 Both Gtr's
e|--------------------------------------------|
B|--------------------------------------------|
G|--------------------------------------------|
D|--5555--5555----------------5555--5555------|
A|--5555--5555----------------5555--5555------|
D|--5555--5555----------------5555--5555------|
               Are you ready?            GO!

 |GtrI
e||--------------------------| 6x's
B||--------------------------|
G||--------------------------|
D||--5h7-7--5h7-7--5h7-5h7---|
A||--------------------------|
D||--------------------------|
 |GtrII
e||-----------------------------| 3x's
B||-----------------------------|
G||-----------------------------|
D||-----0~-----33p2~------------|
A||-----0~-----33p2~------------|
D||-----0~-----33p2~------------|
 |

 GtrI
e|-----------------------------------------|
B|-----------------------------------------|
G|-----------------------------------7-----|
D|---------------------------------7---7---|
A|----------------------------3h5----------|
D|--0-00-00-00-00-000-00-00----------------|
    .......................

  |GtrI
e||-----------------------------------------|4x's
B||-----------------------------------------|
G||-----------------------------------7-----|
D||---------------------------------7---7---|
A||--0-00-00-00-00-000-00-00---3h5----------|
D||--0-00-00-00-00-000-00-00----------------|
 |   .......................
 |GtrII
e||-----------------------------------------|
B||-----------------------------------------|
G||-----------------------------------------|
D||-----------------------------------------|
A||--0-00-00-00-00-000-00-00----------------|
D||--0-00-00-00-00-000-00-00----------------|
 |   .......................

 |GtrI
e||--------------------------| 6x's
B||--------------------------|
G||--------------------------|
D||--5h7-7--5h7-7--5h7-5h7---|
A||--------------------------|
D||--------------------------|
 |GtrII
e||-----------------------------| 3x's
B||-----------------------------|
G||-----------------------------|
D||-----0~-----33p2~------------|
A||-----0~-----33p2~------------|
D||-----0~-----33p2~------------|
 |

 GtrI                                     Both Gtr's
e|----------------------------------|3x's |------------------------|
B|----------------------------------|     |------------------------|
G|-----------------------------7----|     |------------------------|
D|---------------------------7---7--|     |-------5555---5555------|
A|----------------------3h5---------|     |-------5555---5555------|
D|--2p0--2p0--2p0--2-0--------------|     |-------5555---5555------|
                        Mind Freak!!!

 GtrI
e|-----------------------------------------|
B|-----------------------------------------|
G|-----------------------------------7-----|
D|---------------------------------7---7---|
A|----------------------------3h5----------|
D|--0-00-00-00-00-000-00-00----------------|
    .......................

  |GtrI
e||-----------------------------------------|4x's
B||-----------------------------------------|
G||-----------------------------------7-----|
D||---------------------------------7---7---|
A||--0-00-00-00-00-000-00-00---3h5----------|
D||--0-00-00-00-00-000-00-00----------------|
 |   .......................
 |GtrII
e||-----------------------------------------|
B||-----------------------------------------|
G||-----------------------------------------|
D||-----------------------------------------|
A||--0-00-00-00-00-000-00-00----------------|
D||--0-00-00-00-00-000-00-00----------------|
 |   .......................

 |GtrI
e||--------------------------| 6x's
B||--------------------------|
G||--------------------------|
D||--5h7-7--5h7-7--5h7-5h7---|
A||--------------------------|
D||--------------------------|
 |GtrII
e||-----------------------------| 3x's
B||-----------------------------|
G||-----------------------------|
D||-----0~-----33p2~------------|
A||-----0~-----33p2~------------|
D||-----0~-----33p2~------------|
 |

 GtrI
e|-------------------------------------------------------| 3x's
B|-------------------------------------------------------|
G|------------------------------------------------7------|
D|----------------------------------------------7---7----|
A|-----------------------------------------3h5-----------|
D|--00-2p0-0-2p0--2p0--00--2p0-0-2-0---------------------|
                                            Mind Freak!!!

 Both Gtr's                              GtrII
e|--------------------------------------|-------|
B|--------------------------------------|-------|
G|--------------------------------------|-------|
D|--5555--5555----------------5555--5555|-5/0---|
A|--5555--5555----------------5555--5555|-5/0---|
D|--5555--5555----------------5555--5555|-5/0---|
               Are you ready?

 |GtrI
e||--------------------------| 12x's
B||--------------------------|
G||--------------------------|
D||--5h7-7--5h7-7--5h7-5h7---|
A||--------------------------|
D||--------------------------|
 |GtrII
e||-----------------------------| 6x's
B||-----------------------------|
G||-----------------------------|
D||-----0~-----33p2~------------|
A||-----0~-----33p2~------------|
D||-----0~-----33p2~------------|
 |

 GtrI                                     Both Gtr's
e|----------------------------------|3x's |----------------------------|
B|----------------------------------|     |----------------------------|
G|-----------------------------7----|     |----------------------------|
D|---------------------------7---7--|     |---5555---5555--------------|
A|----------------------3h5---------|     |---5555---5555--------------|
D|--2p0--2p0--2p0--2-0--------------|     |---5555---5555--------------|
                          Mind Freak!!!                   Are you ready?


well, their you go enjoy....
Tap to rate this tab
# A B C D E F G H I J K L M N O P Q R S T U V W X Y Z