Cristin Milioti - La Vie En Rose tab

-------------------------------------------------------------------------------
                    La Vie En Rose - Cristin Milioti
-------------------------------------------------------------------------------
Tabbed by: Angie

This is my first ever guitar tab, and I believe this is pretty accurate to the
way Cristin played it on her ukelele, only in guitar form. Hope you like it!

Tuning: Standard, no capo
Note: The first three strings are not played AT ALL.



       D D U D U D    D D U D U D    D D U D U D    D D  D  D
e|-----3--------------2--------------0--------------2----3--2------------|
B|-----3--------------3--------------1--------------3----3--3------------|
G|-----4--------------2--------------0--------------2----2--2------------|
D|-----------------------------------------------------------------------|
A|-----------------------------------------------------------------------|
E|-----------------------------------------------------------------------|


    Hold me close and hold me fast, this magic spell you cast. This is

    D  D U            D       D  D  U              D     D  D  U
e|--3-------------------------3--------------------------0---------------|
B|--3-------------------------3--------------------------1---------------|
G|--4-------------------------2--------------------------0---------------|
D|-----------------------------------------------------------------------|
A|-----------------------------------------------------------------------|
E|-----------------------------------------------------------------------|


    la vie en rose...      When you kiss me, heaven sighs, and though I

    D         D D  D D     D  D U            D      D   D  U
e|------------2----3-------3------------------------3--------------------|
B|------------3----3-------3------------------------3--------------------|
G|------------2----2-------4------------------------2--------------------|
D|-----------------------------------------------------------------------|
A|-----------------------------------------------------------------------|
E|-----------------------------------------------------------------------|


    close my eyes, I see la vie en rose...      When you press me to your

    D        D  D  U        D      D D  D D     D  D U            D
e|-----------0---------------------2----3-------3------------------------|
B|-----------1---------------------3----3-------3------------------------|
G|-----------0---------------------2----2-------4------------------------|
D|-----------------------------------------------------------------------|
A|-----------------------------------------------------------------------|
E|-----------------------------------------------------------------------|


    heart, I'm in a world apart - a world where roses bloom.

    D   D  U              D   D D U             D     D D D
e|--3-------------------------0-----------------------2------------------|
B|--3-------------------------1-----------------------3------------------|
G|--2-------------------------0-----------------------2------------------|
D|-----------------------------------------------------------------------|
A|-----------------------------------------------------------------------|
E|-----------------------------------------------------------------------|


    And when you speak, angels sing from above. Everyday words seem to

    D                          D                D
e|--0--------------------------2----------------0------------------------|
B|--1--------------------------3----------------1------------------------|
G|--0--------------------------2----------------0------------------------|
D|-----------------------------------------------------------------------|
A|-----------------------------------------------------------------------|
E|-----------------------------------------------------------------------|


    turn into love... songs...     Give your heart and soul to me, and

    D               D              D  D U              D       D D U
e|--2---------------3--------------3---------------------------3---------|
B|--3---------------3--------------3---------------------------3---------|
G|--2---------------2--------------4---------------------------2---------|
D|-----------------------------------------------------------------------|
A|-----------------------------------------------------------------------|
E|-----------------------------------------------------------------------|


    life will always be...      la... vie... en... rose.

              D      D D U D    D     D      D     D
e|-------------------0----------2-----3------2-----3---------3-----------|
B|-------------------1----------3-----3------3-----3---------------------|
G|-------------------0----------2-----2------2-----4---------------------|
D|-----------------------------------------------------------------------|
A|-----------------------------------------------------------------------|
E|-----------------------------------------------------------------------|

Tap to rate this tab
 
# A B C D E F G H I J K L M N O P Q R S T U V W X Y Z