Song name
# A B C D E F G H I J K L M N O P Q R S T U V W X Y Z

Criteria - Prevent The World tab

Band / Artist: Criteria
Album: When We Break (2005)
Song: Prevent The World
Tuning: Drop D (DADGBe)

Well I thought the tab posted for this befor me needed some work so tabbed it and I 
this sounds better and it's complete. Their are a few things I was not able to figure out, 
your free to point out any mistakes.


Intro (Distortion)

Guitar 1 & 2
e|---------------------------------------------|
B|---------------------------------------------|
G|---------------------------------------------|
D|---9-99---------5--5-5-5555------------------|
A|---9-99---------5--5-5-5555------------------|
E|---9-99---------5--5-5-5555------------------|

e|---------------------------------------------|
B|---------------------------------------------|
G|-----7---7---7---7---------------------------|
D|---0-x-0-x-0-x-0-x--0000---------------------|      (x3)
A|---0-5-0-5-0-5-0-5--0000---------------------|
E|---0---0---0---0----0000---------------------|

e|---------------------------------------------|
B|---------------------------------------------|
G|---------------------------------------------|
D|---9-99---------5--5-5-5555------------------|
A|---9-99---------5--5-5-5555------------------|
E|---9-99---------5--5-5-5555------------------|

Verse 1 (Clean)

Guitar 1
e|---------------------------------------------|
B|---------------------------------------------|
G|---------------------------------------------|
D|--7--9--7-7--5--5-5-5-5--0-0-0-0--7--7-7-7-7-|    (x4)
A|--7--9--7-7--5--5-5-5-5--0-0-0-0--7--7-7-7-7-|
E|--7--9--7-7--5--5-5-5-5--0-0-0-0--7--7-7-7-7-|


e|------------------------------|
B|------------------------------|
G|--777/11-11--7-7-777----------|
D|--xxx-x--x---x-x-xxx----------|
A|--555/9--9---5-5-555----------|
E|------------------------------|

Chorus 1 (Distortion)

Guitar 1 & 2
e|---------------------------------------------|
B|---------------------------------------------|
G|-----7---7---7---7---------------------------|
D|---0-x-0-x-0-x-0-x--0000---------------------|    (x3)
A|---0-5-0-5-0-5-0-5--0000---------------------|
E|---0---0---0---0----0000---------------------|

e|---------------------------------------------|
B|---------------------------------------------|
G|---------------------------------------------|
D|---9-99---------5--5-5-5555------------------|
A|---9-99---------5--5-5-5555------------------|
E|---9-99---------5--5-5-5555------------------|

e|---------------------------------------------|
B|---------------------------------------------|
G|-----11--11--11--11--------------------------|    (x3)
D|---0-x-0-x-0-x-0-x--0000---------------------|
A|---0-9-0-9-0-9-0-9--0000---------------------|
E|---0---0---0---0----0000---------------------|

e|---------------------------------------------|
B|---------------------------------------------|
G|---------------------------------------------|
D|---9-99---------5--5-5-5555------------------|
A|---9-99---------5--5-5-5555------------------|
E|---9-99---------5--5-5-5555------------------|


Verse 2

Guitar 1 (Distortion)
e|---------------------------------------------|
B|---------------------------------------------|
G|---------------------------------------------|
D|--7--9--7-7--5--5-5-5-5--0-0-0-0--7--7-7-7-7-|    (x4)
A|--7--9--7-7--5--5-5-5-5--0-0-0-0--7--7-7-7-7-|
E|--7--9--7-7--5--5-5-5-5--0-0-0-0--7--7-7-7-7-|

Guitar 2 (distortion)
e|---------------------------------------------|
B|---------------------------------------------|
G|---------------------------------------------|
D|---777--444--222--000------------------------|\
A|---------------------------------------------| \
E|---------------------------------------------|  \
                                                   |x2
e|-----------------------------------------------|  /
B|-----------------------------------------------| /
G|-----------------------------------------------|
D|---999--444--777--4-7-9-7----------------------|
A|-----------------------------------------------|
E|-----------------------------------------------|

e|------------------------------|
B|------------------------------|
G|--777/--999---7-7-7-7---------|
D|--xxx---xxx---x-x-x-x---------|
A|--555/--777---5-5-5-5---------|
E|------------------------------|


e|---------------------------------------------|
B|---------------------------------------------|
G|---------------------------------------------|
D|--99-9-9\0--77-7-7-7\5-5-5-555---------------|    (x2)
A|--99-9-9\0--77-7-7-7\5-5-5-555---------------|
E|--99-9-9\0--77-7-7-7\5-5-5-555---------------|

(slide 999 down the neck from 9 to 0 and slid 777 down to just fret 5. Listen to the 
and you will know what I mean)

e|---------------------------------------------|
B|---------------------------------------------|
G|--11111111-11--11/14--14-14-141414-----------|
D|---x-x-x-x--x---x/x---x--x--x-x-x------------|
A|---9-9-9-9--9---9/12--12-12-121212-----------|\
E|---------------------------------------------| \
                                                  |(x2)
e|---------------------------------------------| /
B|---9999-9--9\7--7-7-777----------------------|/
G|---xxxx-x--x\x--x-x-xxx----------------------|
D|---7777-7--7\5--5-5-555----------------------|
A|---------------------------------------------|
E|---------------------------------------------|

(Let the last 7x5 ring the second time you do it)

e|---------------------------------------------|
B|---------------------------------------------|
G|-----7---7---7---7---------------------------|
D|---0-x-0-x-0-x-0-x--0000---------------------|    (x3)
A|---0-5-0-5-0-5-0-5--0000---------------------|
E|---0---0---0---0----0000---------------------|

(strum this part with your thum, or whatever finger is best for you)

Chorus 2

Guitar 1 & 2
e|---------------------------------------------|
B|---------------------------------------------|
G|---------------------------------------------|
D|---9-99---------5--5-5-555-------------------|
A|---9-99---------5--5-5-555-------------------|
E|---9-99---------5--5-5-555-------------------|

e|---------------------------------------------|
B|---------------------------------------------|
G|-----7---7---7---7---------------------------|
D|---0-x-0-x-0-x-0-x--0000---------------------|    (x3)
A|---0-5-0-5-0-5-0-5--0000---------------------|
E|---0---0---0---0----0000---------------------|

e|---------------------------------------------|
B|---------------------------------------------|
G|---------------------------------------------|
D|---9-99---------5--5-5-5555------------------|
A|---9-99---------5--5-5-5555------------------|
E|---9-99---------5--5-5-5555------------------|

e|---------------------------------------------|
B|---------------------------------------------|
G|-----11--11--11--11--------------------------|    (x3)
D|---0-x-0-x-0-x-0-x--0000---------------------|
A|---0-9-0-9-0-9-0-9--0000---------------------|
E|---0---0---0---0----0000---------------------|

e|---------------------------------------------|
B|---------------------------------------------|
G|---------------------------------------------|
D|---9-99---------5--5-5-5555------------------|
A|---9-99---------5--5-5-5555------------------|
E|---9-99---------5--5-5-5555------------------|


Outro

e|---------------------------------------------|
B|---16---14---16---11-------------------------|
G|---x----x----x----x--------------------------|
D|-0-14-0-12-0-12-0-9--0000--------------------|
A|-0----0----0----0----0000--------------------|
E|-0----0----0----0----0000--------------------|

e|---------------------------------------------|
B|---14---16---11---7--------------------------|
G|---x----x----x----x--------------------------|
D|-0-12-0-14-0-9--0-5--0000--------------------|
A|-0----0----0----0----0000--------------------|
E|-0----0----0----0----0000--------------------|

e|---------------------------------------------|
B|---9---7---11---7----------------------------|
G|---x---x---x----x----------------------------|
D|-0-7-0-5-0-9--0-5--0000----------------------|
A|-0---0---0----0----0000----------------------|
E|-0---0---0----0----0000----------------------|

e|---------------------------------------------|
B|---------------------------------------------|
G|---------------------------------------------|
D|---9-99---------5--5-5-5555------------------|
A|---9-99---------5--5-5-5555------------------|
E|---9-99---------5--5-5-5555------------------|

e|---------------------------------------------|
B|----h14\-------------------------------------|
G|-----x---------------------------------------|
D|---0h12\-------------------------------------|
A|---0-----------------------------------------|
E|---0-----------------------------------------|


\= Slide down
/= Slide up
h= Hammer On
x= Mute


Here's the vidio so you can listen to the song http://www.saddle-creek.com/whenwebreak/video.html
Tap to rate this tab
 
# A B C D E F G H I J K L M N O P Q R S T U V W X Y Z