Song name
# A B C D E F G H I J K L M N O P Q R S T U V W X Y Z

Cro-mags - Dont Tread On Me tab

e|---------------------------------------------------------------------------|
B|---------------------------------------------------------------------------|
G|---------------------------------------------------------------------------|
D|--9--12--------------------------------------------------------------------|
A|--7--10--12--10------------------------------------------------------------|
E|---------10---8--(4x)------------------------------------------------------|

e|---------------------------------------------------------------------------|
B|---------------------------------------------------------------------------|
G|---------------------------------------------------------------------------|
D|-----9--10-----------------------------------------------------------------|
A|--9--7---8---------7-7-7-7-7-7---------------------------------------------|
E|--7---------(3x)---5-5-5-5-5-5---------------------------------------------|

  Then repeat from the beginning, after that play this:

e|---------------------------------------------------------------------------|
B|---------------------------------------------------------------------------|
G|---------------------------------------------------------------------------|
D|---------------------------------------------------------------------------|
A|--2--2-2-2-----------------------------------------------------------------|
E|--0--0-0-0-----------------------------------------------------------------|

 Just hit the chord a couple of times because the bass plays here

e|---------------------------------------------------------------------------|
B|---------------------------------------------------------------------------|
G|---------------------------------------------------------------------------|
D|--9--10--------------------------------------------------------------------|
A|--7---8--------------------------------------------------------------------|
E|---------------------------------------------------------------------------|
Tap to rate this tab
# A B C D E F G H I J K L M N O P Q R S T U V W X Y Z