Song name
# A B C D E F G H I J K L M N O P Q R S T U V W X Y Z

Cro-mags - Its The Limit tab

Artist: Cro-Mags
Song: Its the Limit
e-mail: iamtheowl133@aol.com

Intro
e|--------------------------------------------------------------------|
B|--------------------------------------------------------------------|
G|--------------------------------------------------------------------|
D|-9-------10-7-10-9--------------------------------------------------|
A|-7-------8--5-8--7-------------------------------------------(x4)---|
E|--------------------------------------------------------------------|

Verse
e|--------------------------------------------------------------------|
B|--------------------------------------------------------------------|
G|--------------------------------------------------------------------|
D|--777-666-777-888-777-666-777-101010--------------------------------|
A|--555-444-555-666-555-444-555-8-8-8---------------------------------|
E|--------------------------------------------------------------------|

Second part of the verse, play after first part
e|--------------------------------------------------------------------|
B|--------------------------------------------------------------------|
G|--------------------------------------------------------------------|
D|--999-888-999-101010-999-888-999-121212-----------------------------|
A|--777-666-777-8-8-8--777-666-777-101010-----------------------------|
E|--------------------------------------------------------------------|
  
Chorus
e|--------------------------------------------------------------------|
B|--------------------------------------------------------------------|
G|--------------------------------------------------------------------|
D|-10-7-10-9----------------------------------------------------------|
A|-8--5-8--7---------------------------------------------------(x4)---|
E|--------------------------------------------------------------------|

Repeat Verse

Repeat Chorus

Breakdown
e|--------------------------------------------------------------------|
B|--------------------------------------------------------------------|
G|--------------------------------------------------------------------|
D|-----------101010-777-10-99-----------------------------------------|
A|-********--8-8-8--555-8--77----------------------------------(x12)--|
E|-00000000-----------------------------------------------------------|
Tap to rate this tab
 
# A B C D E F G H I J K L M N O P Q R S T U V W X Y Z