Song name
# A B C D E F G H I J K L M N O P Q R S T U V W X Y Z

Cro-mags - Survival Of The Streets tab

-------------------------------------------------------------------------------
	            SURVIVAL OF THE STREETS - Cro-Mags
-------------------------------------------------------------------------------

By:David Bostijn   David.Bostijn@pi.be

e|---------------------------------------------------------------------------|
B|---------------------------------------------------------------------------|
G|---------------------------------------------------------------------------|
D|----5--------------------------------------7-7-7--5-5-5--8-5-7-------------|
A|----3-(this chord only when song starts!)--5-5-5--3-3-3--6-3-5-------------|
E|---------------------------------------------------------------------------|

   Play 2 times before song sets off... then 4 times
e|---------------------------------------------------------------------------|
B|---------------------------------------------------------------------------|
G|---------------------------------------------------------------------------|
D|----5--4----7-7-7--5-5-5--8-5-7----5--4---!!-7-7-7--5-5-5--8-5-7!!---------|
A|----3--2----5-5-5--3-3-3--6-3-5----3--2---!!-5-5-5--3-3-3--6-3-5!!(!!2x!!)-|
E|---------------------------------------------------------------------------|

e|---------------------------------------------------------------------------|
B|---------------------------------------------------------------------------|
G|---------------------------------------------------------------------------|
D|------------------8-8-8-8-8-8---7-7-7-7-7-7-7-7-7-7-7-7--------------------|
A|----7-7-7-7-7-7---6-6-6-6-6-6---5-5-5-5-5-5-5-5-5-5-5-5------(4x)----------|
E|----5-5-5-5-5-5------------------------------------------------------------|

e|---------------------------------------------------------------------------|
B|---------------------------------------------------------------------------|
G|---------------------------------------------------------------------------|
D|----7-7-7--5-5-5--8-5-7----------------------------------------------------|
A|----5-5-5--3-3-3--6-3-5---(4x)---------------------------------------------|
E|---------------------------------------------------------------------------|
 
Tap to rate this tab
# A B C D E F G H I J K L M N O P Q R S T U V W X Y Z