Song name
# A B C D E F G H I J K L M N O P Q R S T U V W X Y Z

Cro - Einmal Um Die Welt tab

Title: Einmal um die Welt
Artist: Cro
Tempo = 160
Electric Guitar



E       |-----7-----5--7h-5------------|-----7-----5--7h-5-------------|
B       |-----7-----5--7h-5------------|-----7-----5--7h-5-------------|
G       |-----------5------------------|-----------5-------------------|
D       |------------------------------|-------------------------------|
A       |------------------------------|-------------------------------|
E       |------------------------------|-------------------------------|
                      H                             D             |

|-----7-----5--7h-5------------|-----7-----5--7h-5------------||
|-----7-----5--7h-5------------|-----7-----5--7h-5------------||
|-----------5------------------|-----------5------------------||
|------------------------------|------------------------------||
|------------------------------|------------------------------||
|------------------------------|------------------------------||
                  E                              A
Tap to rate this tab
# A B C D E F G H I J K L M N O P Q R S T U V W X Y Z