Song name
# A B C D E F G H I J K L M N O P Q R S T U V W X Y Z

Cro - Geht Gut tab

   GEHT GUT
    by Cro


    4/4, 110 bpm


E|---12--12--10--10-|---7---7---5---5--|---12--12--10--10-|---7---7---5---5--|
B|-10--10--12--12---|-8---8---7---7----|-10--10--12--12---|-8---8---7---7----|
G|------------------|------------------|------------------|------------------|
D|------------------|------------------|------------------|------------------|
A|------------------|------------------|------------------|------------------|
E|------------------|------------------|------------------|------------------|


E|---12--12--10--10-|
B|-10--10--12--12---|
G|------------------|
D|------------------|
A|------------------|
E|------------------|
Tap to rate this tab
# A B C D E F G H I J K L M N O P Q R S T U V W X Y Z