Song name
# A B C D E F G H I J K L M N O P Q R S T U V W X Y Z

Croce Jim - Bad Bad Leroy Brown tab

Alright, so the other tabs on here may be right, but if you're just
playing by yourself, they don't sound that good, so this is my version,
which sounds just like the piano part that's playing in the song.
Its a tab for use with improvising, so take it for what its worth,
and have fun. RickyWillems at gmail


 Intro
e|-------------------- x3 -------------------|
B|-------------------- x3 -------------------|
G|-------------------- x3 -------------------|
D|-------------------- x3 --3-3--------------|
A|--5-5-7-7--5-5-7-7-- x3 ------7-7--5-5-7-7-|
E|--3-3-3-3--3-3-3-3-- x3 --3-3-3-5--3-3-3-3-|

e|-------------------- x3 ------------------|
B|-------------------- x3 ------------------|
G|-------------------- x3 ------------------|
D|-------------------- x3 ------------------|
A|--5-5-7-7--5-5-7-7-- x3 --55-5-5-5--------|
E|--3-3-3-3--3-3-3-3-- x3 --33-3-3-5--------|


e|----------------------| x4
B|----------------------| x4
G|----------------------| x4
D|----------------------| x4
A|--5-5-7-7--5-5-7-7----| x4
E|--3-3-3-3--3-3-3-3----| x4

  Well the south side of chicago
  And he's bad bad leroy brown
  Now Leroy More than trouble
  And he's bad bad leroy brown

e|----------------------| x4
B|----------------------| x4
G|----------------------| x4
D|----------------------| x4
A|--7-7-9-9--7-7-9-9----|x4
E|--5-5-5-5--5-5-5-5----| x4

  Is the baddest part of town
  Baddest Man in the whole damn town
  You see he stand 'bout six foot four
  Baddest Man in the whole damn town

e|----------------------------| x2
B|----------------------------| x2
G|----------------------------| x2
D|--9-9-11-11----9-9-11-11----| x2
A|--7-7-7--7-----7-7-7--7-----| x2
E|----------------------------| x2

  And if you go down there
  Badder than old king
  All the downtown ladies
  Badder than old king

e|-----------------------------------| x4
B|-----------------------------------| x4
G|-----------------------------------| x4
D|-----------------------------------| x4
A|--10-10-12-12--10-10-12-12---------| x4
E|--8--8--8--8---8--8--8--8----------| x4

  You better just beware
  kong
  call him treetop lover
  kong

e|-------------------------------|
B|-------------------------------|
G|-------------------------------|
D|--7-7-9-9----5-5-7-7-----------|
A|--5-5-5-5----3-3-3-3--55-5-5-5-|
E|----------------------33-3-3-3-|

  Of a man named leroy brown
  Meaner than a junkyard dog
  All the men just call him sir
  Meaner than a junkyard dog
Tap to rate this tab
# A B C D E F G H I J K L M N O P Q R S T U V W X Y Z